Você está na página 1de 1

Composição: Alçeu Valença

Tom: C

(Intro 2x) ( G Am C G )

Alçeu Valença Tom: C (Intro 2x) ( G Am C G )   G e| --------
 

G

e|--------7--8--7---------------------------

Na bruma leve das paixões que vem de

B|-8--10-----------12p8-10p8---8-10-8-10--8-

Am

G|---------------------------9--------------

D|------------------------------------------

A|------------------------------------------

E|------------------------------------------

e|--7--8--7---------------------------|

B|10--------12p8-10p8--10/12-10/8-8-8-|

G|--------------------9---------------|

dentro

G Tu vens chegando prá brincar no meu quintal Am No teu cavalo peito nu cabelo ao vento C

E o sol quarando nossas roupas no varal

C

G

D|------------------------------------|

(2x)

A|------------------------------------|

E|------------------------------------|

Refrão 2x:

e|--------7--8--7---------------------------- G7

B|-8--10-----------12p8-10p8---8-10-8-10b12--

G|---------------------------9---------------

D|-------------------------------------------

A|-------------------------------------------

E|-------------------------------------------

e|----7--8--7---------------------------|

B|8-10--------12p8-10p8--10/12-10/8-8-8-|

G|----------------------9---------------|

D|--------------------------------------|

A|--------------------------------------|

E|--------------------------------------|

Em7

Tu vens tu vens C Eu já escuto os teus sinais

F

G

Am

A voz do anjo sussurrou no meu ouvido

C

G

eu não duvido já escuto os teus sinais Am Que tu virias numa manhã de domingo G Eu te anuncio nos sinos das catedrais

E

C

(Refrão)

(Repete tudo)

Am

1 2 3 G7 3 4
1
2
3
G7
3
4
C 1 2 3
C
1
2
3
E 1 2 3
E
1
2
3
Em7 1 2 3
Em7
1
2
3
F 2 3 4
F
2
3
4
G 1 2 3
G
1
2
3