Você está na página 1de 8

As Rosas Não Falam

Cartola

Tom: C#C#

Intro: DmDm

Dm/CDm/C

BºBº Gm/BbGm/Bb

E7E7

A7A7

DmDm

A7A7

DmDm

Dm/CDm/C

E|---1---1-1---------1---1-1----------------

B|---3---3-3---------3---3-3----------------

G|---2---2-2---------2---2-2----------------

D|-0---------3-0-------------3-0------------

A|---------------4-3-------------3----------

E|------------------------------------------

BºBº

Gm/BbGm/Bb

E|-------------------3---3-3----------------

B|---3---3-3---------3---3-3----------------

G|---1---1-1---------0---0-0----------------

D|---3---3-3-0------------------------------

A|-2-----------3-2-1-------1-0--------------

E|-----------------------------3-1----------

E7E7

A7A7

E|-------------------3---3---3---3----------

B|---0---0---0---0---2---2---2---2----------

G|---1---1---1---1---2---2---2---2----------

D|---0---0---0---0--------------------------

A|---------2-------0-------4----------------

E|-0----------------------------------------

DmDm

E|---1---1-1--------------------------------

B|---3---3-3--------------------------------

G|---2---2-2--------------------------------

D|-0-------0--------------------------------

A|------------------------------------------

E|------------------------------------------

DmDm

A7A7

E|------------------------------------------

B|------------------------------------------

G|-2-0--------------------------------------

D|-----3-2-0---2-0--------------------------

A|-----------4-----4-1-0-------------0------

E|-----------------------3---1---3----------

Primeira Parte:

DmDm

Dm/CDm/C

4 ----- 4 - 1 - 0 ------------- 0 ------ E| ----------------------- 3 --- 1 ---

Bate outra vez,

Gm/BbGm/Bb Com esperança o meu coração

E7E7

Gm/FGm/F

E7/BE7/B

A7/C#A7/C#

A7A7

Pois já vai terminando o verão,

DmDm

enfim.

DmDm

A7A7

E|---1---1---1-------1---1---1--------------

B|---3---3---3-------3---3---3--------------

G|---2---2---2-------2---2---2--------------

D|-0-------0---0----------------------------

A|---------------4-3-------3---3-2----------

E|------------------------------------------

Gm/BbGm/Bb

Gm/FGm/F

E|---3---3-3--------------------------------

B|---3---3-3---------3---3---3--------------

G|---0---0-0---------3---3---3--------------

D|-------------------0---0---0--------------

A|-1-------1-0------------------------------

E|-------------3-2-1-------1---3-1----------

E7E7

A7/C#A7/C#

A7A7

DmDm

E|-----------------------3---3---3---3-1----

B|---0---0-0-------------2---2---2---2-3----

G|---1---1-1-2-0---------2---2---2---2-2----

D|---0---0-0-----3-2-0-----------------0----

A|---------2-----------4-------0------------

E|-0----------------------------------------

E|------------------------------------------

B|------------------------------------------

G|-------2p0--------------------------------

D|-0h2h3-----3-2p0------------------0-------

A|-----------------4-1p0-----0---1----------

E|-----------------------3------------------

E|------------------------------------------

B|------------------------------------------

G|------------------------------------------

D|-2p0--------------------------------------

A|-----4-1p0--------------------------------

E|-----------3-1p0--------------------------

Segunda Parte:

DmDm Volto ao jardim,

Dm/CDm/C

Dm/ADm/A

E7/G#E7/G#

E7/DE7/D

Com a certeza que devo chorar Gm/BbGm/Bb

Pois bem sei que não queres voltar,

DmDm

Para mim

DmDm

D7/F#D7/F#

Dm/CDm/C

Dm/ADm/A

A7A7

A7/EA7/E

E|---1---1---1-------1---1---1---1----------

B|---3---3---3-------3---3---3---3----------

G|---2---2---2-------2---2---2---2----------

D|-0-------0---0----------------------------

A|---------------4-3-------0----------------

E|------------------------------------------

E7/G#E7/G#

E7/DE7/D

E|---------------------0---0-0--------------

B|---3---3-------------0---0-0--------------

G|---4---4-------------1---1-1--------------

D|---2---2-------2-1-0---------2-1-0--------

A|-------------2---------------------3-2----

E|-4-------0-4---------------0--------------

Gm/BbGm/Bb

A7A7

A7/EA7/E

E|---3---3---3--------3---3---3---3---------

B|---3---3---3--------2---2---2---2---------

G|---0---0---3--------2---2---2---2---------

D|------------------------------------------

A|-1-------1------1-0-----------------------

E|--------------------------0---------------

DmDm

D7/F#D7/F#

E|---1---1-1--------------------------------

B|---3---3-3---------1--1--1----------------

G|---2---2-2---------2--2--2----------------

D|-0-----------------0--0--0----------------

A|---------0--------------------------------

E|-------------0-1-2-------2-0---2----------

Terceira Parte:

GmGm Queixo-me às rosas,

Gm/FGm/F

mas que bobagem

DmDm

Dm/CDm/C

As rosas não falam,

E7/BE7/B

E7/DE7/D

simplesmente as rosas exalam,

E7/BE7/B

A7A7

A7/EA7/E

o perfume que roubam de ti, Ai!

GmGm

E|------------------------------------------

B|---3---3---3---3--------------------------

G|---3---3---3---3--------------------------

D|---5---5---5---0--------0-2-3-2-----------

A|-------------------0-1--------------------

E|-3-------3---3-1-3------------------------

DmDm

Dm/CDm/C

E|---1---1-1---------1---1-1----------------

B|---3---3-3---------3---3-3----------------

G|---2---2-2---------2---2-2----------------

D|-0---------3-0-------------3-0------------

A|---------------4-3-------------3----------

E|------------------------------------------

E7/BE7/B

E7/DE7/D

E7/BE7/B

E|---------------------0---0---0---0--------

B|---3---3-------------0---0---0---0--------

G|---4---4-------------1---1---1---1--------

D|---2---2-------2-1-0----------------------

A|-2-----------2-------------2--------------

E|---------0-4------------------------------

A7A7

E|---3---3-3--------------------------------

B|---2---2-2--------------------------------

G|---2---2-2--------------------------------

D|------------------------------------------

A|-0----------------------------------------

E|---------0--------------------------------

E|------------------------------------------

B|------------------------------------------

G|-0-2-3-----0------------------------------

D|-------2-3-----0-2------------------------

A|-------------4-----0-1-4-----0------------

E|-------------------------1-3---0-1-3-1-0--

Variação da Primeira Parte:

DmDm

Dm/CDm/C

Devias vir,

Gm/BbGm/Bb

Para ver os meus olhos tristonhos,

E7/BE7/B

E quem sabe sonhavas meu sonho,

E7E7

DmDm

A7A7

Por fim.

DmDm

Gm/FGm/F

A7/C#A7/C#

A7A7

E|---1---1---1-------1---1---1--------------

B|---3---3---3-------3---3---3--------------

G|---2---2---2-------2---2---2--------------

D|-0-------0---0----------------------------

A|---------------4-3-------3---3-2----------

E|------------------------------------------

Gm/BbGm/Bb

Gm/FGm/F

E|---3---3-3--------------------------------

B|---3---3-3---------3---3---3--------------

G|---0---0-0---------3---3---3--------------

D|-------------------0---0---0--------------

A|-1-------1-0------------------------------

E|-------------3-2-1-------1---3-1----------

E7E7

A7/C#A7/C#

A7A7

DmDm

E|-----------------------3---3---3---3-1----

B|---0---0-0-------------2---2---2---2-3----

G|---1---1-1-2-0---------2---2---2---2-2----

D|---0---0-0-----3-2-0-----------------0----

A|---------2-----------4-------0------------

E|-0----------------------------------------

A7A7

E|------------------------------------------

B|------------------------------------------

G|------------------------------------------

D|-3-2-0---0-2-3-2h3p2---2-0----------------

A|-------4-------------4--------------------

E|------------------------------------------

E|------------------------------------------

B|------------------------------------------

G|-2-0--------------------------------------

D|-----3-2-0--------------------------------

A|-----------4-1-0-------0------------------

E|-----------------3-1-3--------------------

(1ª vez - repete a música toda)

2ª vez - repete só a última estrofe:

DmDm

Dm/CDm/C

Devias vir,

Gm/BbGm/Bb

Para ver os meus olhos tristonhos,

E7/BE7/B

E quem sabe sonhavas meu sonho,

E7E7

Gm/FGm/F

A7A7

DmDm

Dm9Dm9

Por fim.

DmDm

A7/EA7/E

E|---1---1---1-------1---1---1--------------

B|---3---3---3-------3---3---3--------------

G|---2---2---2-------2---2---2--------------

D|-0-------0---0----------------------------

A|---------------4-3-------3---3-2----------

E|------------------------------------------

Gm/BbGm/Bb

Gm/FGm/F

E|---3---3-3--------------------------------

B|---3---3-3---------3---3---3--------------

G|---0---0-0---------3---3---3--------------

D|-------------------0---0---0--------------

A|-1-------1-0------------------------------

E|-------------3-2-1-------1---3-1----------

E7E7

A7/C#A7/C#

A7A7

DmDm

E|-----------------------3---3---3---3-1----

B|---0---0-0-------------2---2---2---2-3----

G|---1---1-1-2-0---------2---2---2---2-2----

D|---0---0-0-----3-2-0-----------------0----

A|---------2-----------4-------0------------

E|-0----------------------------------------

A7A7

E|------------------------------------------

B|------------------------------------------

G|------------------------------------------

D|-3-2-0---0-2-3-2h3p2---2-0----------------

A|-------4-------------4--------------------

E|------------------------------------------

Dm9Dm9

E|-------------------------12---------------

B|-------------------------10---------------

G|-2-0---------------------10---------------

D|-----3-2-0---------------0----------------

A|-----------4-1-0-------0------------------

E|-----------------3-1-3--------------------

A7 A7/C# A7/E Bº D7/F# Dm 1 1 2 1 1 2 3 2 2
A7
A7/C#
A7/E
D7/F#
Dm
1
1
2
1
1
2
3
2
2
4
3
4
1
3
2
2
3
4
3
4
Dm/A
Dm/C
Dm9
E7
E7/B
E7/D
1
1
1
1
2
2
2
2
3
2
3
3
3
4
3
4
4
1
2
4
3
4
E7/G#
Gm
Gm/Bb
Gm/F
1
1
2
2
3
1
2
3
4
3
4
4
3
4

Interesses relacionados