Você está na página 1de 3

Malandragem

Cássia Eller
Composição: Cazuza / Roberto Frejat

Tom: F

Intro: Dm Bb C

Primeira Parte:
Dm
Quem sabe eu ainda sou
C
uma garotinha
Gm Dm
Esperando o ônibus da escola sozinha
C
Cansada com minhas meias três quartos
Gm Dm
Rezando baixo pelos cantos
C Bb
Por ser uma menina má
Dm C
Quem sabe o príncipe virou um chato
Gm Dm
Que vive dando no meu saco
C Bb
Quem sabe a vida é não sonhar

Refrão:
Dm C
Eu só peço a Deus
F G
Um pouco de malandragem
Dm C
Pois sou criança
F G
E não conheço a verdade
Bb C Dm
Eu sou poeta e não aprendi a amar (2x)

Segunda Parte:
C
Bobeira não viver a realidade
Gm Dm
E eu ainda tenho uma tarde inteira
G F C Dm
Eu ando nas ruas eu troco o cheque
Bb Dm
Mudo uma planta de lugar
G F C Dm
Dirijo o meu carro, tomo o meu pileque
Bb Dm
E ainda tenho tempo pra cantar

Repete o Refrão:
Dm C
Eu só peço a Deus
F G
Um pouco de malandragem
Dm C
Pois sou criança
F G
E não conheço a verdade
Bb C Dm
Eu sou poeta e não aprendi a amar (2x)

Base do Solo: C Gm Dm

Solo:

Parte 1

E|---------------------------------------------------|
B|------------5-5b6-b6--5-5--------------------------|
G|---7-7-7-7----------------7-5----------------------|
D|-7----------------------------5-5------------------|
A|---------------------------------------------------|
E|---------------------------------------------------|

Parte 2

E|---------------------------------------------------|
B|---------------------------------------------------|
G|---------------------------------------------------|
D|-3/5-5-5--3-5/7--5-3---3h5--3-----3----------------|
A|---------------------5--------5-5------------------|
E|---------------------------------------------------|

Repete a Segunda Parte:


G F C Dm
Eu ando nas ruas eu troco o cheque
Bb Dm
Mudo uma planta de lugar
G F C Dm
Dirijo o meu carro, tomo o meu pileque
Bb Dm
E ainda tenho tempo pra cantar

Repete o Refrão:
Dm C
Eu só peço a Deus
F G
Um pouco de malandragem
Dm C
Pois sou criança
F G
E não conheço a verdade
Bb C Dm
Eu sou poeta e não aprendi a amar (2x)
Dm
Quem sabe ainda sou uma garotinha

Bb C Dm F G Gm
1 1
2 2 2 1
2 3 4 3 3 3 4 2 3

3 4

Interesses relacionados