Você está na página 1de 2

Voce vai ver solo

João Ronaldo aulas de guitarra e violão (041) 9673-2707


institutoguitar@hotmail.com

------------------------------------------------------------------
-----3-----------------6---------------------5---6-(6)-7--6---
---3---5-3 ---5-3-5--------3-3-3---2-3------7-(7)-9-------
-3-------------7-5-7-7-----5-5-5---3-5--5--------------7---
-------------------------------------------------------------------
------------------------------------------------------------------

(violão 1)
-8-8-8-6-5----6-5-------------------------------------
--------------8-------8-6---8-6--8-6-5----------------
---------------------------------------------7-5----------
----------------------------------------------------8-7---
-----------------------------------------------------------
-----------------------------------------------------------

Violão 2
-----------------------------------------------------------
-5-5-5------------------------5----5--------------------
---------7-5-----7-5------------7-----7-5--------------
---------------8-------8-7-------------------8-7-5------
--------------------------------------------------------8---
-------------------------------------------------------------

Solo teclado ou xylophone


-1-3-1-0---------3-------------------0-------------0-------------
------------3-5------5-------------3----3-2-0- 2-----2-----------
--------------------------5-7--------------------------------2--3---
-----------------------------------------------------------------------
------------------------------------------------------------------------
-------------------------------------------------------------------------

Escala Fmaior Diatônica


-----------------------------5-6-8--
--------------------5-6-8-----------
--------------5-7-------------------
----5-7-8--------------------------
-8----------------------------------
-------------------------------------
-----------------------
----------------3-5-6--
-------2-3-5-----------
-3-5-------------------
-----------------------
-----------------------

Só violão 1
------------------------------------------------------------------
-----3-----------------6---------------------5---6-(6)-7--6---
---3---5-3 ---5-3-5--------3-3-3---2-3---------------------
-3----------------------------------------------------------------
-------------------------------------------------------------------
------------------------------------------------------------------
Só violão 2
-------------------------------------------------------
------------------------------------------------------
----------------------------------------7-(7)-9-----
----7-5-7-7-----5-5-5---3-5--5--------------7---
--------------------------------------------------------
--------------------------------------------------------

Mesclado
-8-8-8-6-5----6-5-----------------------------------
--------------8-------8-6---8-6-5--------------------
---------------------------------------7-5--------------
----------------------------------------------8-7-5-----
-------------------------------------------------------8--
-----------------------------------------------------------