Você está na página 1de 3

Jorge e Mateus - Eu Quero Só Você

Intro: Am F C G O OU O OOOOOOOO

E|------------------------------------------------|
B|------------------------------------------------|
G|-------------------------0-----0-----0----------|
D|---2-0---2-0---2-0---2-0-----0-----0------0-----|
A|-3-----3-----3-----3-------3-----3-----3----3-2-|
E|------------------------------------------------|

Primeira Parte:

Am7
O que todos querem é só separar nós dois
F9
Você é o que quero e vou continuar te amando
C
Eu não tô nem aí pro que os outros vão dizer
G4(6)
O que a gente sente ninguém tem nada a ver

Am7
Todos ficam falando que eu não sirvo pra você
F9
Dizem que eu não presto só me meto em confusão
C
Querem nos afastar e acabar com nosso amor
G4(6)
Tirar você de mim

Segunda Parte:
Am
O nosso amor
F5(7M/9)
Todos querem por um fim
C
Querem nos afastar
G4(6) G
Tirar você de mim

Eu amo você

E não me importa o que vão dizer

Am7
O nosso amor
F5(7M/9)
Todos querem por um fim
C9
Querem nos afastar
G4(6) G
Tirar você de mim

Eu amo você

E não me importa o que vão dizer


Segunda Parte:

Passagem:

E|-----------------------------------------|
B|---x---x---------------------------------|
G|-2-x-4-x-x-5-2-x-4-x-x-5--5--5-----------|
D|-2---5---x-5-3-x-5-x-x-7--7--7-----------|
A|-0-x-2-x-x-3---x-------------------------|
E|-------------1-x-3-x-x-5--5--5-----------|

Refrão:

C
Eu quero só você
G
Eu quero só você
Am
Eu quero só você
F
E não me importa o que vão dizer
C
Eu quero só você
G
Eu quero só você
Am
Eu quero só você

( Am F C G )
oh oh oh... ohh ohhh

Segunda Parte:
Am7 2X
O nosso amor
F5(7M/9)
Todos querem por um fim
C
Querem nos afastar
G4(6)
Tirar você de mim

Eu amo você

E não me importa o que vão dizer..

Refrão:

C
Eu quero só você
G
Eu quero só você
Am
Eu quero só você
F
E não me importa o que vão dizer
C
Eu quero só você
G
Eu quero só você

Segunda parte:

Eu amo você

E não me importa o que vão dizer..

Refrão:

C
Eu quero só você
G
Eu quero só você
Am
Eu quero só você
F
E não me importa o que vão dizer

C
Eu quero só você
G
Eu quero só você
Am
Eu quero só você
G Am
Eu quero só