Você está na página 1de 2

Nenhum de Nós - Camila, Camila

Parte 1:
E|---------0----------------------------|
B|----3------3--------------------------|
G|------2------2------------------------|
D|--0-------------4---------------------|
A|--------------------------------------|
E|--------------------------------------|
Parte 2:
E|--------0--0------0------0------0-----|
B|------3------3------3------3------3---|
G|---0-----------0------0------0------0-|
D|-2------------------------------------|
A|--------------------------------------|
E|--------------------------------------|
Final:

E|---------0----------------------------|
B|-------3---3--------------------------|
G|-----2--------------------------------|
D|-4-0----------------------------------|
A|--------------------------------------|
E|--------------------------------------|

D9
Depois da última noite de festa
Em G D9
Chorando e esperando amanhecer, amanhecer

As coisas aconteciam
Em G D9
Com alguma explicação, com alguma explicação

Depois da última noite de chuva


Em G D
Chorando e esperando amanhecer, amanhecer

Às vezes peço a ele


Em G D9
Que vá embora, que vá embora, oh
C Bm Am7
Camila, Camila, Camila
G
E eu que tenho medo até de suas mãos
F7+
Mas o ódio cega e você não percebe
Bm C
Mas o ódio cega, ah
G
E eu que tenho medo até do seu olhar
F7+
Mas o ódio cega e você não percebe
Bm C ( D9 Em G D9 )
Mas o ódio cega, ah
D9
As lembranças do silêncio
Em G D9
Daquelas tardes, daquelas tar...des
Na vergonha do espelho
Em G D9
Naquelas marcas daquelas marcas

Havia algo de insano


Em G6 D9
Naqueles olhos, olhos insanos

Os olhos que passavam o dia


Em G D9
A me vigiar, a me vigiar, oh
C Bm Am7
Camila, Camila, Camila (2x)

C
E eu que tinha apenas dezessete anos
Bm
Baixava minha cabeça pra tudo
Am7
E era assim que as coisas aconteciam
D
e era assim que eu via tudo acontecer (2x)

C Bm Am7
Camila, Camila, Camila (2x)

----------------- Acordes -----------------


Am7 = X 0 2 0 1 0
Bm = X 2 4 4 3 2
C = X 3 2 0 1 0
D = X X 0 2 3 2
D9 = X X 0 2 3 0
Em = 0 2 2 0 0 0
F7+ = 1 X 2 2 1 X
G = 3 2 0 0 0 3
G6 = 3 X 2 4 3 X