Você está na página 1de 3

Pra Sempre (Forever)

Ministério Avivah

Tom: G

[Intro] G D Am C
G D Am C

E|----------------------------------------|
B|-7-8----12--7----7-8---12---5-----------|
G|----------------------------------------|
D|----------------------------------------|
A|-5-10---10--5----9-10---10--3-----------|
E|----------------------------------------|

G D Em
O universo chora, o sol se apagou
C
Ali estava morto o salvador
G D Em
Seu corpo lá na cruz, seu sangue derramou
C
O peso do pecado Ele levou
G D Em
Deus pai o abandonou, cessou o respirar
C
Em trevas encontrou o filho
G D Em
A guerra começou, a morte enfrentou
C G
Todo o poder das trevas vencido foi

G D Em
A terra estremeceu o sepulcro se abriu
C
E nada vencerá seu grande amor
G/B D
Ó morte, onde estás?
Em C
O Rei ressuscitou! Ele venceu pra sempre

G D Em C
Pra sempre exaltado é, pra sempre adorado é
G D Em C
Pra sempre ele vive... ressuscitou, ressuscitou

[Solo] G D Em C
G D Em C
G D Em
Cantamos aleluia,cantamos aleluia
C
Cantamos aleluia, o cordeiro venceu

G D Em
Cantamos aleluia,cantamos aleluia
C
Cantamos aleluia, o cordeiro venceu

G D Em
Cantamos aleluia,cantamos aleluia
C
Cantamos aleluia, o cordeiro venceu

G D Em
Cantamos aleluia,cantamos aleluia
C
Cantamos aleluia, o cordeiro venceu

G D Em
Cantamos aleluia,cantamos aleluia
C
Cantamos aleluia, o cordeiro venceu

G D Am
Cantamos aleluia,cantamos aleluia
C C
Cantamos aleluia, o cordeiro venceu

G D Em C
Pra sempre exaltado é, pra sempre adorado é
G D Em C
Pra sempre Ele vive. Ressuscitou, ressuscitou
G D Em C
Pra sempre exaltado é, pra sempre adorado é
G D Em C
Pra sempre Ele vive. Ressuscitou, ressuscitou

[Solo] G D Em C

E|-------------------------------------------|
B|13-13-12-12-12-12-10-10--------------------|
G|-------------------------------------------|
D|-------------------------------------------|
A|-------------------------------------------|
E|-------------------------------------------|
E|-------------------------------------------|
B|13-13-12-12-12-12-10-13--------------------|
G|-------------------------------------------|
D|-------------------------------------------|
A|-------------------------------------------|
E|-------------------------------------------|

E|-------------------------------------------|
B|13-13-12-12-12-12-10-8-10-12-12-8-10-12-13-|
G|-------------------------------------------|
D|-------------------------------------------|
A|-------------------------------------------|
E|-------------------------------------------|

Am C D Em G G/B
1 1
2 3 2 1 2 1 2 1 1
3 3 2 3 2 3