Você está na página 1de 5

Anti-Amor (part.

Jorge e Mateus)
Gustavo Mioto

Tom: C# (forma dos acordes no tom de C)

Capotraste na 1ª casa
[Intro] F7M(9) G G/B

[TAB Introdução]
F7M(9) G G/B
E|-----------------0-----------------3--3---|
B|-1p0-1---------1-1-1h3-3---------3-3--3---|
G|-------------0---0-------------0---0--0---|
D|-----------3-----3-----------0-----0--0---|
A|---------3-------3---------2-------2--2---|
E|-------1---------1-------3---------3------|

[Primeira parte]
C
Tô aqui pra te contar
C/E F7M(9)
Por aqui tá tudo em paz, tudo bem

Eu já nem te amo mais


C
Comecei a me tratar
C/E F7M(9)
De você, e quer saber?

Te esqueci há uma semana atrás

[Dedilhado Primeira parte]

Parte 1 de 2
C C/E F7M(9)
E|-0-0-0-------0-0-0--0---------------------|
B|-1-1-1---1---1-1-1--1---------------------|
G|-0-0-0---0---0-0-0--0---------------------|
D|-2-2-2---2---3-3-3--3---------------------|
A|-3-3-3-------3-3-3--3---------------------|
E|---------0---1-1-1--1---------------------|
↓ ↑ ↓ ↓ ↑ ↓ ↓

Parte 2 de 2
C C/E F7M(9)
E|-0-0-0-------0-0-0------------------------|
B|-1-1-1---1---1-1-1--1p0-------------------|
G|-0-0-0---0---0-0-0------2p0---------------|
D|-2-2-2---2---3-3-3------------------------|
A|-3-3-3-------3-3-3------------------------|
E|---------0---1-1-1------------------------|
↓ ↑ ↓ ↓ ↑ ↓

[Pré-refrão]

Am7 G F7M(9)
E aquela loucura de mudar pra Salvador

Esquece, eu nem gosto de calor


Am7 G
Se fez uma cozinha maior
F7M(9)
Pra juntar a família ao redor

Esquece, jantar fora é bem melhor

[Refrão]

F7M(9) G
Coração receitou
Em Am7
De 8 em 8 horas, uma dose de anti-amor
F7M(9) G
Já tomei, funcionou
Em Am7
Eu sou paciente, coração é meu doutor

F7M(9) G
Coração receitou
Em Am7
De 8 em 8 horas, uma dose de anti-amor
F7M(9) G
Já tomei, funcionou
Em Am7
Eu sou paciente, coração é meu doutor

F7M(9) G
PS: Hoje eu ganhei alta
Am7 Am7/G
Nem sinto mais sua falta
F7M(9) G
PS: Hoje eu ganhei alta
Am7
Não sinto mais sua falta

(F7M(9) G Em Am7)

[Repetição Pré-refrão]

F9 G Em
E aquela loucura de mudar pra Salvador

Esquece, eu nem gosto de calor


F9 G
Se fez uma cozinha maior
Em
Pra juntar a família ao redor

Esquece, jantar fora é bem melhor

[Dedilhado repetição Pré-refrão]

Parte 1 de 2
F9 G Em
E|-3--3-3-3-3--3-3-3-3--0-0-----------------|
B|-1--1-1-1-1--3-3-3-3--0-0--0h1p0----------|
G|-2--2-2-2-2--0-0-0-0--0-0--0h2p0----------|
D|-3--3-3-3-3--0-0-0-0--2-2-----------------|
A|-------------2-2-2-2--2-2-----------------|
E|-------------3-3-3-3--0-0-----------------|
↓ ↑ ↓ ↑ ↓ ↓ ↑ ↓ ↓ ↓ ↓
Parte 2 de 2
F9 G Em
E|-3--3-3-3-3--3-3-3-3--0-0-----------------|
B|-1--1-1-1-1--3-3-3-3--0-0--6---------6----|
G|-2--2-2-2-2--0-0-0-0--0-0--5h7p5-----5----|
D|-3--3-3-3-3--0-0-0-0--2-2--------7p5------|
A|-------------2-2-2-2--2-2-----------------|
E|-------------3-3-3-3--0-0-----------------|
↓ ↑ ↓ ↑ ↓ ↓ ↑ ↓ ↓ ↓ ↓

[Refrão final]

F7M(9) G
Coração receitou
Em Am7
De 8 em 8 horas, uma dose de anti-amor
F7M(9) G
Já tomei, funcionou
Em Am7
Eu sou paciente, coração é meu doutor

F7M(9) G
Coração receitou
Em Am7
De 8 em 8 horas, uma dose de anti-amor
F7M(9) G
Já tomei, funcionou
Em Am7
Eu sou paciente, coração é meu doutor
F7M(9) G
PS: Hoje eu ganhei alta
Am7 Am7/G
Não sinto mais sua falta
F7M(9) G
PS: Hoje eu ganhei alta
(ARRANJO FINAL)
Não sinto mais sua falta

[TAB Arranjo final]


F9 C
E|---------------------3---3--0--0-0--0-----|
B|-1-3-3/5--0-1-1/3----1-1-1--3--1-1--1-----|
G|-------------------2---2----4--2-0--0-----|
D|-2-3-3/5--0-2-2/3--3--------5--3-2--2-----|
A|------------------------------------3-----|
E|------------------------------------------|

Am7* Am7/G* C* C/E* Em* F7M(9)*


1ª 1ª 1ª 1ª 1ª 1ª
1 1 1 1 P 1
2 2 2 2 2 3
3 3 3 4

*A#m7 com *A#m7/G# *C# com *C#/F com *Fm com *F#7M(9)
forma de com forma forma de C forma de forma de com forma
Am7 de Am7/G C/E Em de F7M(9)
F9* G* G/B*
1ª 1ª 1ª
1
2 1 1
3 4 2 3 4 2 3

*F#9 com *G# com *G#/C com


forma de F9 forma de G forma de
G/B