Você está na página 1de 4

MC Bruninho - Jogo do Amor

[Intro 2x] A#m C#9 G# D#m

[TAB - Intro]

Parte 1 de 3
E|-----4------------------4---------------------------|
B|-2-2---2-2-2-2-1----2-2---2-2-2-2-4-4---------------|
G|-----------------3----------------------------------|
D|----------------------------------------------------|
A|----------------------------------------------------|
E|----------------------------------------------------|

Parte 2 de 3
E|-----4------------4---------------------------------|
B|-2-2---2-2-2----2---2-2-2-4-------------------------|

G|-------------3--------------------------------------|
D|----------------------------------------------------|
A|----------------------------------------------------|
E|----------------------------------------------------|

Parte 3 de 3
E|---1-1-1-1-1-1-1-1-4-2-1-2-1------------------------|
B|-2--------------------------------------------------|
G|----------------------------------------------------|
D|----------------------------------------------------|
A|----------------------------------------------------|
E|----------------------------------------------------|

[Primeira Parte]

A#m C#9
Olha aonde eu vim parar
G#
Mais uma vez o coração se apaixonou
D#m
Pela pessoa errada

A#m C#9
Mas como eu ia imaginar
G#
Que no lugar do coração da princesinha
D#m
Não existia nada?

[Pré-refrão]

A#m
Tudo bem
C#9 G#
Você tá me ensinando mesmo sem saber
D#m
E é com teu desprezo
A#m
Que eu vou te esquecer
C#9 G# D#m
Espera mais um pouco e tu vai ver
[Refrão]

A#m C#9 G#
O amor que eu sinto por você
D#m A#m
Nada disso você deve entender
C#9
O teu jogo eu sei jogar
G#
Mas nunca vou ganhar
D#m
Porque você não sabe o sentido de amar

A#m C#9
O amor que eu sinto por você
G# D#m
Nada disso você deve entender
A#m
O teu jogo eu sei jogar
C#9
Mas nunca vou ganhar
G# D#m
Porque você não sabe o sentido de amar

(A#m C#9 G# D#m A#m C#9 G# D#m)

[TAB - Solo Refrão]

Parte 1 de 3
E|-----4------------------4---------------------------|
B|-2-2---2-2-2-2-1----2-2---2-2-2-2-4-4---------------|
G|-----------------3----------------------------------|
D|----------------------------------------------------|
A|----------------------------------------------------|
E|----------------------------------------------------|

Parte 2 de 3
E|-----4------------4---------------------------------|
B|-2-2---2-2-2----2---2-2-2-4-------------------------|
G|-------------3--------------------------------------|
D|----------------------------------------------------|
A|----------------------------------------------------|
E|----------------------------------------------------|

Parte 3 de 3
E|---1-1-1-1-1-1-1-1-4-2-1-2-1------------------------|
B|-2--------------------------------------------------|
G|----------------------------------------------------|
D|----------------------------------------------------|
A|----------------------------------------------------|
E|----------------------------------------------------|

[Primeira Parte]

A#m C#9
Olha aonde eu vim parar
G#
Mais uma vez o coração se apaixonou
D#m
Pela pessoa errada

A#m C#9
Mas como eu ia imaginar
G#
Que no lugar do coração da princesinha
D#m
Não existia nada?

[Pré-refrão]

A#m
Tudo bem
C#9 G#
Você tá me ensinando mesmo sem saber
D#m
E é com teu desprezo
A#m
Que eu vou te esquecer
C#9 G# D#m
Espera mais um pouco e tu vai ver

[Refrão]

A#m C#9 G#
O amor que eu sinto por você
D#m A#m
Nada disso você deve entender
C#9
O teu jogo eu sei jogar
G#
Mas nunca vou ganhar
D#m
Porque você não sabe o sentido de amar

A#m C#9
O amor que eu sinto por você
G# D#m
Nada disso você deve entender
A#m
O teu jogo eu sei jogar
C#9
Mas nunca vou ganhar
G# D#m
Porque você não sabe o sentido de amar

(A#m C#9 G# D#m A#m C#9 G# D#m)

[TAB - Solo Refrão]

Parte 1 de 3
E|-----4------------------4---------------------------|
B|-2-2---2-2-2-2-1----2-2---2-2-2-2-4-4---------------|
G|-----------------3----------------------------------|
D|----------------------------------------------------|
A|----------------------------------------------------|
E|----------------------------------------------------|

Parte 2 de 3
E|-----4------------4---------------------------------|
B|-2-2---2-2-2----2---2-2-2-4-------------------------|
G|-------------3--------------------------------------|
D|----------------------------------------------------|
A|----------------------------------------------------|
E|----------------------------------------------------|

Parte 3 de 3
E|---1-1-1-1-1-1-1-1-4-2-1-2-1------------------------|
B|-2--------------------------------------------------|
G|----------------------------------------------------|
D|----------------------------------------------------|
A|----------------------------------------------------|
E|----------------------------------------------------|

----------------- Acordes -----------------


A#m = 6 8 8 6 6 6
C#9 = X 4 6 6 4 4
D#m = X 6 8 8 7 6
G# = 4 6 6 5 4 4

Interesses relacionados