Você está na página 1de 2

Victor e Leo - 10 Minutos Longe de Você (part.

Henrique e Juliano)

Intro: Am G Dm E7

Am G
Dizem que os olhos são como espelhos
Dm E
Que seu brilho sempre reflete aquilo que seu coração está cheio,
Am G Dm
E
Dizem que a boca descreve momentos, com palavras de amor revelando o que trago no
meu peito.

Pré-refrão:

C4(6)/A E4/A
A minha história com você não é tão diferente,
G
e no brilho dos seus olhos vejo o quando você sente
Dm E E7
quando estou ausente,

C4(6)/A E4/A
E se você me ouve agora vai me entender,
G
que falta uma metade tudo é nada sem você,
E E7
eu to chegando para te ver.

Refrão:
C G
Tome um banho de flores passe o seu perfume
Dm
coloque aquela roupa que me traz ciúme
F E
que eu estou chegando para de amar

C G
Me espera com um sorriso de lábios vermelhos
Dm
prepare a nossa cama põe vinho no gelo
F E
que eu quero brindar para esquecer esses 10 minutos
F G Am
Loonge de você.

Am G Dm E7

Solo:

E|---------------------------------------5------------|
B|-10-8--10-8-----------------------------------------|
G|-------------7/9--7-5-7-7/9----------5--------------|
D|----------------------------5-5/7--7----------------|
A|----------------------------------------------------|
E|----------------------------------------------------|

E|----------------------------------------------------|
B|-10-8--10-8--13--12-10-12-13-12-10---13-12----------|
G|--------------------------------------------5/7-5/--|
D|----------------------------------------------------|
A|----------------------------------------------------|
E|----------------------------------------------------|

Pré-refrão:
C4(6) E4/A
A minha história com você não é tão diferente,
G
e no brilho dos seus olhos vejo o quando você sente
Dm E E7
quando estou ausente,

C4(6) E4/A
E se você me ouve agora vai me entender,
G
que falta uma metade tudo é nada sem você,
E E7
eu to chegando para te ver.

Refrão:
C G
Tome um banho de flores passe o seu perfume
Dm
coloque aquela roupa que me traz ciúme
F E
que eu estou chegando para de amar

C G
Me espera com um sorriso de lábios vermelhos
Dm
prepare a nossa cama põe vinho no gelo
F E
que eu quero brindar para esquecer esses 10 minutos
F G Am
Loonge de você.

----------------- Acordes -----------------


Am = X 0 2 2 1 0
C = X 3 2 0 1 0
C4(6) = 8 7 5 5 6 5
Dm = X X 0 2 3 1
E = 0 2 2 1 0 0
E4/A = X 0 2 2 0 0
E7 = 0 2 2 1 3 0
F = 1 3 3 2 1 1
G = 3 2 0 0 0 3