Você está na página 1de 5

26/07/13 Cifra Club | ME ENCONTRA - Charlie Brown Jr.

LETRAS.MUS.BR PALCO MP3 FÓRUM NOTÍCIAS AUDIOWARE GUITAR BATTLE FORME SUA BANDA Entrar

publicidade

início cifras e tabs top músicas aprenda enviar cifra notícias letras fórum
minhas cifras
ARTISTAS A B C D E F G H I J K L M N O P Q R S T U V W X Y Z 0/9

Página Inicial » C» Charlie Brow n Jr. » Me Encontra Cifra Cifra Original Cifra Completa Cifra Pow erchords Mais...

Me Encontra 467.956 exibições

Tweet
Charlie Brown Jr. Email

Tom: E clipes vídeo-aula você tocando

Texto Colunas
Intro 2x: C# E B A
Buscar
E|---0--0--0--0-0-0-0--0--0-0-0-0--0--|

Alterar tom B|--10-10-10-10-8-7---10-10-8-7-------|


G|------------------9-----------9\----|
½ tom ½ tom
D|------------------------------------|
afinação A|------------------------------------|
E|------------------------------------|
acordes na letra

esconder tabs
E|--0--0--0--0-0-0-0--0--0--0--0-0------0-0-0-0-0--|
capotraste
B|-10-10-10-10-8-7---12-12-10-10-9h10p9\-----------|
Exibir acordes de:
G|-----------------9-------------------------------|
violão D|-------------------------------------------------|
destro canhoto A|-------------------------------------------------|
« m enos E|-------------------------------------------------|

afinador
rolagem
E|---0--0--0--0-0-0-0--0--0-0-0-0--0--|
dicionário B|--10-10-10-10-8-7---10-10-8-7-------|
G|------------------9-----------9\----|
favoritar cifra
D|------------------------------------|
add a minhas cifras A|------------------------------------|
E|------------------------------------|
letra

fotos
vídeos E|--0--0--0--0-0--0-0--0-0-0--|
imprimir B|-10-10-10-10-8h10---12~-----|
G|----------------------------|
corrigir
D|----------------------------|
salvar txt
A|----------------------------|
E|----------------------------|

( C#5 E5 A5 )
Hoje eu vou sair pra encontrar amor
Que Espero a tanto tempo e ainda não rolou
O Vento diz que é hoje em meio a multidão
que eu vou encontrar a dona do Meu coração

Ai Sempre...

E C#m
E|---------7/---------4-------------
B|----7-8---------------------5-4---
G|--9-----------------------6--------
D|--9--------------------6----------
A|--------------------4-------------
E|--------------------4-------------

a sorrir, chorar, ter alguem pra compartilhar


Sempre viver pra alguem que me ama e dividir Sempre
Felicidade e Amor... Então

www.cifraclub.com.br/charlie-brown-jr/me-encontra/ 1/5
26/07/13 Cifra Club | ME ENCONTRA - Charlie Brown Jr.

( C#m E B A )
Me Encontra, ou deixa eu Te Encontrar
Me Encontra, ou deixa eu Te Encontrar
Me Encontra, ou deixa eu Te Encontrar
Me Encontra, ou deixa eu Te Encontrar

(Intro)

( C#5 E5 A5 )
Eu não Conheço todas as flores
Mas vou mandar todas que eu puder
Vivemos tempos de loucos Amores
Só é feliz quem sabe o que quer

( C#5 E5 A5 )
Me Encontra, ou deixa eu Te Encontrar
Me Encontra, ou deixa eu Te Encontrar
Me Encontra, ou deixa eu Te Encontrar
Me Encontra, ou deixa eu Te Encontrar
Solo:

E|---------------------------------------|
B|---3h5p3-5-12-12-12-10-10-10-9-9-9~----|
G|-5-------------------------------------|
D|---------------------------------------|
A|---------------------------------------|
E|---------------------------------------|

E|---------------------------------------|
B|---3h5p3-5--12-12-12-10-10-10-9-9-9~---|
G|-5-------------------------------------|
D|---------------------------------------|
A|---------------------------------------|
E|---------------------------------------|

E|---------------------------------------|
B|----9--12---9-12---9-12---9-12---------|
G|--9-------9------9------9------11~\----|
D|---------------------------------------|
A|---------------------------------------|
E|---------------------------------------|

E|---------------------------------------|
B|----9--12---9-12---9-12---9-12---------|
G|--9-------9------9------9------9~\-----|
D|---------------------------------------|
A|---------------------------------------|
E|---------------------------------------|

E|---------------------------------------|
B|---3h5h3-5--12-12-12-10-10-10-9-9-9~---|
G|-5-------------------------------------|
D|---------------------------------------|
A|---------------------------------------|
E|---------------------------------------|
Exibir acordes
»

E|---------------------------------------|
B|---3h5h3-5--12-12-12-10-10-10-9-9-9~---|
G|-5-------------------------------------|
D|---------------------------------------|
A|---------------------------------------|
E|---------------------------------------|

www.cifraclub.com.br/charlie-brown-jr/me-encontra/ 2/5
26/07/13 Cifra Club | ME ENCONTRA - Charlie Brown Jr.

E|---------------------------------------|
B|-12/21--12/19--16h17p16--12/19--12-----|
G|---------------------------------------|
D|---------------------------------------|
A|---------------------------------------|
E|---------------------------------------|

E|-------------------------------------------------------------12-|
B|----------7---7--9----9--12--9--------------12---12-14-12-14----|
G|-------9----9------11----------11-----11-13----13---------------|
D|----11----------------------------------------------------------|
A|----------------------------------------------------------------|
E|-9---------------------------------12---------------------------|

( C#5 E5 A5)

( C#5 E5 A5 )
Fico Pensando Onde Está Você
E Se você estaria pensando em me encontrar
Como Sou, Onde Estou, e Onde Quero Chegar?
Como Sou, Como é que Vai Ser, e Onde Vou Te Levar?
Mas Se Você me ver, pode ascenar pra mim
já pensou que louco te encontrar assim?
Eu Vou Na Boa Vou Na Fé Sei Que Vou Te Encontrar
E Quando Eu te Encontrar Nos Vamos Comemorar!

( C#5 E5 A5 )
Me Encontra, ou deixa eu Te Encontrar
Me Encontra, ou deixa eu Te Encontrar
Me Encontra, ou deixa eu Te Encontrar
Me Encontra, ou deixa eu Te Encontrar
Te encontrar.

violão teclado cavaco

A A5 B C# C#5 C#m E E5
4º 4º 4º

02220X XX2 2 0 X 24442X 46664X XX6 6 4 X 45664X 001220 XXX2 2 0

Contribuição: GABRI ;x
Comentários (64) Correções: demoril e mais 1 »

140 Consegui tocar 40 conseguem

Você precisa estar logado para comentar. Ainda não é cadastrado? Cadastre-se

.
Email Senha enviar com entário
Ainda não consegui tocar

Lenon Coelho:
P ostado em 08/07/2013 21:44

Que letra massa!


Muito foda!

Gustavo:
P ostado em 03/07/2013 23:06

Queremos vídeo aula..!

kaleu123:
P ostado em 29/06/2013 19:45

www.cifraclub.com.br/charlie-brown-jr/me-encontra/ 3/5
26/07/13 Cifra Club | ME ENCONTRA - Charlie Brown Jr.

Video aulaaaaaaaaaaaaaaaaaaaaa !!!!!!!!!

Elvis:
P ostado em 27/06/2013 18:04

Vídeo Aula logo pohh

jorghyfernando.ferreiradasilva:
P ostado em 23/06/2013 14:47

video aula !!!

brunaenya:
P ostado em 16/05/2013 14:17

CADÊ VIDEO AULA!! PRECISO :)

dfmneto:
P ostado em 11/05/2013 18:45

Cade a video aula!!!!Fazem video aulas de musicas desnecessarias mais as que precisam não fazem!!!

Gabriel:
P ostado em 06/05/2013 17:56

Video aula !!!

Gabriel:
P ostado em 06/05/2013 17:54

Video aula !!!!!!!!!

rafael_zete:
P ostado em 17/03/2013 19:25

Video aula aquiiii

Exibindo 10 de 64 comentários Mostrar m ais ver todos »

semana mês geral semana mês geral

1. Te Esperando 1. Legião Urbana


Luan Santana
105.347 exibições 352.543 exibições

2. Vagalumes 2. Jorge e Mateus


Pollo
59.040 exibições 325.287 exibições

3. Tempo Perdido 3. Charlie Brown Jr.


Legião Urbana
51.634 exibições 209.566 exibições

4. 93 Million Miles 4. Luan Santana


Jason Mraz
47.455 exibições 185.564 exibições

5. Só Os Loucos Sabem 5. Thalles Roberto


Charlie Brow n Jr.
40.574 exibições 140.726 exibições

6. O Que É Que Tem 6. Fernandinho


Jorge e Mateus
38.969 exibições 124.603 exibições

7. A Hora É Agora 7. Bruno e Marrone


Jorge e Mateus
36.283 exibições 103.391 exibições

8. Pais e Filhos 8. Victor e Leo


Legião Urbana
34.774 exibições 95.968 exibições

9. Faroeste Caboclo 9. Capital Inicial


Legião Urbana
33.332 exibições 92.119 exibições
Promoções Cifra Club - Camisetas, livros e kits na faixa!
10. Chão de Giz 10.
Roberto Carlos
Zé Ramalho
33.274 exibições 88.780 exibições

1.098 ganhadores | seja o próximo »


« voltar Top 1000 cifras RSS mais » « voltar Top 1000 artistas RSS mais »

www.cifraclub.com.br/charlie-brown-jr/me-encontra/ 4/5
26/07/13 Cifra Club | ME ENCONTRA - Charlie Brown Jr.

Cifra Club News Mais Serviços Cifra Club ID

Top 1000 cifras Música em Geral Vídeo-aulas Notícias


Top 1000 artistas Guitarra Professores Cobertura de show s
Guitarra e Violão Violão Cursos Online Entrevistas
Contrabaixo Pedais & Pedaleiras Tutoriais Especiais
Bateria Amplificadores Livros Colunas
Partituras Contra-baixo Dicionário de acordes
Gaita Teclado Afinador
Guitar Pro Bateria Patches/Pedaleiras
Novidades Canto
Peça uma cifra Gaita
Envie suas cifras OFF Topic
Veja outros fóruns »

Aviso Legal Política de Privacidade Anuncie Cadastre-se Fale conosco ver en español .

©1996 - 2013 Cifra Club · o primeiro, maior e mais acessado do Brasil · 312 mil músicas · 5.3 milhões pessoas cadastradas facebook y outube tw itter

www.cifraclub.com.br/charlie-brown-jr/me-encontra/ 5/5