Você está na página 1de 6

Modos da

Escala MAIOR

Prof. Silvio Ribeiro


Harmonia Essencial – A Gramática da música Por Silvio Ribeiro

Introdução
Padrões dos modos da Escala Maior
Este material foi retirado de um trecho do livro “Harmonia Essencial – A Gramática da Música
Volume 3 parte 1” onde você pode encontrar impresso em nossa LOJA:

www.harmoniaessencial.mus.br/loja
É indicado para todos os instrumentos onde todos os MODOS da escala maior estão demonstrados
no pentagrama e também em tablaturas em todas as tonalidades, com os SHAPES específicos para
guitarra/violão, acompanhando áudios de cada exemplo. É um estudo excelente onde todo músico e
amante da música devem conhecer, facilitando o improviso, composição etc...

Este material apenas contém tais escalas, não explicando ou ensinando como utilizá-las, servindo
como apoio para seus estudos.

Você pode assistir o conteúdo explicativo sobre os MODOS


da Escala maior em nossa Vídeo aula explicado pelo Prof.
#Aula13 Silvio Ribeiro, um assunto bem interessante de se conhecer a
fundo.
CLIQUE AQUI PARA ASSISTIR

Prof. Silvio Ribeiro


Saiba mais sobre o HARMONIA ESSENCIAL.

www.harmoniaessencial.mus.br

www.harmoniaessencial.mus.br/cursos Ensino a distância

contato@harmoniaessencial.mus.br
(19) 9-9635-9402
Entre em contato conosco e
Harmonia_essencial_oficial
nos acompanhe nas redes
Harmonia Essencial sociais!!

www.harmoniaessencial.mus.br/blog

Harmonia essencial

Agende sua aula, será um prazer atendê-lo (a)!! Prof. Silvio Ribeiro
Prof. Silvio Ribeiro

• Modo Mixolídio
1 3 4
1 2 4
1 2 4
1 2 4
1 2 4
1 2 4
• Modo Eólio
1 2 4
1 2 4
1 2 4
1 2 4
1 3 4
1 3 4
• Modo Lócrio
1 2 4
1 2 4
1 3 4
1 3 4
1 2 4
1 2 4

Você sabia que... ♯♯♮♪♭♫


A sanfona de oito baixos, no sul do Brasil é conhecida como gaita-ponto, gaita de duas conversas ou cordeona de oito
baixos. Já no nordeste, atende por fole de oito baixos, concertina, realejo, harmônica ou pé-de-bode. Na região sudeste,
sobretudo em Minas Gerais, é popularmente conhecida como cabeça-de-égua. No Espírito Santo, pode ser chamada de
bandona, e no interior do Rio de Janeiro, muitas vezes é denominada como testa de ferro ou concertina. E por aí afora
ainda pode carregar outros apelidos como botoneira, gaita de colher ou verduleira. Enfim, tantas denominações
diferentes para um mesmo instrumento, o acordeom diatônico, que no Brasil é mais popularmente conhecido por
sanfona. A Sanfona recebe seu nome de batismo, “Acordeom” em 1829, pelo construtor vienense Cyrill Demian. Este
inventor teve a ideia de colocar uma gaita dentro de uma caixa, impulsionada por um fole, concretizando um longo
estágio de aperfeiçoamento. Mais tarde, em 1831, Isoard Mathieu, desenvolveria o instrumento. Seria o nascimento do
“acordeom diatônico”, nome este pelo qual a sanfona ainda é conhecida em muitos países do mundo, como a França,
(accordeon diatonique), Alemanha, (diatonische handharmonika) e Espanha (acordeon diatonico).

Padrões em cada tonalidade (Tablaturas para guitarra/violão e partituras para os demais instrumentos):


Harmonia Essencial
 -3- contato@harmoniaessencial.mus.br
A gramática da música (19) 9-9635-9402
Prof. Silvio Ribeiro

Tom: Lá Maior
• Jônico Áudio 62
Áudio 69
e-------------------------------------------------------------------------------7----9----10---
B---------------------------------------------------------------7---9---10---------------------
G------------------------------------------------6---7---9-------------------------------------
D----------------------------------6---7---9---------------------------------------------------
A-------------------5---7---9------------------------------------------------------------------
E----5---7---9---------------------------------------------------------------------------------

• Dórico Áudio 63
e----------------------------------------------------------------------------------9---10---12--- Áudio 70
B-----------------------------------------------------------------9---10---12--------------------
G-------------------------------------------------7---9---11--------------------------------------
D----------------------------------7---9---11-----------------------------------------------------
A-------------------7---9---11--------------------------------------------------------------------
E---7---9---10------------------------------------------------------------------------------------

• Frígio Áudio 64 Áudio 71


e--------------------------------------------------------------------------------------------10---12---14---
B-------------------------------------------------------------------------10---12---14---------------------
G-------------------------------------------------------9---11---13----------------------------------------
D-------------------------------------9---11---12----------------------------------------------------------
A--------------------9---11---12---------------------------------------------------------------------------
E---9---10---12--------------------------------------------------------------------------------------------

• Lídio Áudio 65
e-----------------------------------------------------------------------------------------------12---14---16--- Áudio 72
B---------------------------------------------------------------------------12---14---15----------------------
G---------------------------------------------------------11---13---14----------------------------------------
D---------------------------------------11---12---14----------------------------------------------------------
A---------------------11---12---14----------------------------------------------------------------------------
E---10---12---14----------------------------------------------------------------------------------------------

• Mixolídio Áudio 66
e----------------------------------------------------------------------------------------------14---16---17--- Áudio 73
B--------------------------------------------------------------------------14---15---17----------------------
G--------------------------------------------------------13---14---16---------------------------------------
D--------------------------------------12---14---16---------------------------------------------------------
A--------------------12---14---16--------------------------------------------------------------------------
E---12---14---16--------------------------------------------------------------------------------------------

• Eólio Áudio 67
e---------------------------------------------------------------------------4---5---7----- Áudio 74
B------------------------------------------------------------3---5---7--------------------
G---------------------------------------------2---4---6-----------------------------------
D-------------------------------2---4---6-------------------------------------------------
A-----------------2---4---5---------------------------------------------------------------
E---2---4---5-----------------------------------------------------------------------------

• Lócrio Áudio 68 Áudio 75


e------------------------------------------------------------------------------5---7---9---
B---------------------------------------------------------------5---7---9-----------------
G------------------------------------------------4---6---7--------------------------------
D---------------------------------4---6---7-----------------------------------------------
A------------------4---5---7--------------------------------------------------------------
E---4---5---7-----------------------------------------------------------------------------


Harmonia Essencial
 -7- contato@harmoniaessencial.mus.br
A gramática da música (19) 9-9635-9402
 
Harmonia Essencial
A gramática da música

Harmonia Essencial
www.harmoniaessencial.mus.br

www.harmoniaessencial.mus.br/cursos Ensino a distância

contato@harmoniaessencial.mus.br
(19) 9-9635-9402
Entre em contato conosco e
Harmonia_essencial_oficial
nos acompanhe nas redes
Harmonia Essencial sociais!!

www.harmoniaessencial.mus.br/blog

Harmonia essencial

Bons Estudos!!
Prof. Silvio Ribeiro

Dúvidas? Agende sua consultoria musical, será um prazer em atendê-lo (a)!! contato@harmoniaessencial.mus.br
(19) 9-9635-9402
É indicado para todos os
instrumentos onde todos
os MODOS da escala
maior estão
demonstrados no
pentagrama e também em
tablaturas em todas as
tonalidades, com os
SHAPES específicos para
guitarra/violão,
acompanhando áudios de
cada exemplo. É um
estudo excelente onde
todo músico e amante da
música devem conhecer,
facilitando o improviso,
composição etc...

Prof. Silvio Ribeiro