Você está na página 1de 4

Derrama o Teu Amor Aqui

Celina Borges

Tom: G

(intro) G/B C D Em
C D G/B C
Am G/B C D C D G G4 G

(solo)
E|------------------------------------------------------------------
B|--8-10-12-10-8-7-8-7-8-7-8-7-8-5--8-10-12-10-8-7-8-7-8-7-8-7-8-5--
G|------------------------------------------------------------------
D|------------------------------------------------------------------
A|------------------------------------------------------------------
E|------------------------------------------------------------------

E|--------------------------------------10--|
B|-8-10-12-10-8-7-8-7-8-7-8-7-8-7-8-7-8-----|
G|------------------------------------------|
D|------------------------------------------|
A|------------------------------------------|
E|------------------------------------------|

D Em C
Senhor, eu quero obedecer a Tua voz
G D Em C
Derrama o Teu Espírito (uh, uh) sobre todos nós
G D Em C
Senhor, eu quero mergulhar, me comprometer
G D Em C
Entrar na intimida----de do Teu coração
D G
Derrama em nós Tua unção

D
Derrama o teu amor aqui
Em
Derrama o teu amor aqui
C
Faz chover sobre nós Água Viva
G D
Derrama o teu amor aqui
Em
Derrama o teu amor aqui
C C D G/B C Am G/B C D
Faz chover sobre nós Água Viva
D Em C
Senhor, eu quero obedecer a Tua voz
G D Em C
Derrama o Teu Espírito (uh, uh) sobre todos nós
G D Em C
Senhor, eu quero mergulhar, me comprometer
G D Em C
Entrar na intimida----de do Teu coração
D G
Derrama em nós Tua unção

D
Derrama o teu amor aqui
Em
Derrama o teu amor aqui
C
Faz chover sobre nós Água Viva
G D
Derrama o teu amor aqui
Em
Derrama o teu amor aqui
C D
Faz chover sobre nós Água Viva
G D
Derrama o teu amor aqui
Em
Derrama o teu amor aqui
C D
Faz chover sobre nós Água Viva
G D
Derrama o teu amor aqui
Em
Derrama o teu amor aqui
C
Faz chover sobre nós Água Viva

[Solo]

E|-------------------------------|
B|--^17(19)/-----/12-10-8-7------|
G|--------------------------7~/--|
D|-------------------------------|
A|-------------------------------|
E|-------------------------------|

Uma igreja renovada…


E|-----15-14—12p10h12—10h12p10/---------------15-14—12p10h12-----17^(19)---15-15---|
B|-/12---------------------------10p8-8~--/12--------------------------------------|
G|---------------------------------------------------------------------------------|
D|---------------------------------------------------------------------------------|
A|---------------------------------------------------------------------------------|
E|---------------------------------------------------------------------------------|

E|14h15p14p12-------------------------------------|
B|------------15----------------------------------|
G|---------------14br--12-(alguma escala)---------|
D|------------------------------------------/9----|
A|------------------------------------------------|
E|------------------------------------------------|

(C Em) D
Uma Igreja renovada
Em D
Povo santo reunido
Em D
Famílias restauradas
Em C
Pelo poder do Teu Espírito
G
Derrama o Teu amor aqui!

D
Derrama o teu amor aqui
Em
Derrama o teu amor aqui
C
Faz chover sobre nós Água Viva
G/B D
Derrama o teu amor aqui
Em
Derrama o teu amor aqui
C G/B C D G
Faz chover sobre nós Água Viva
D
Derrama o teu amor aqui
Em
Derrama o teu amor aqui
C
Faz chover sobre nós Água Viva
G/B D
Derrama o teu amor aqui
Em
Derrama o teu amor aqui
C
Faz chover sobre nós Água Viva
D
Derrama o teu amor aqui
Em
Derrama o teu amor aqui
C
Faz chover sobre nós Água Viva
G D
Derrama o teu amor aqui
Em
Derrama o teu amor aqui
C C D C D C D G
Faz chover sobre nós Água Viva Sobre nós!

( G D Em C )

Am C D Em G G/B
1 1
2 3 2 1 2 1 2 1 1
3 3 2 3 2 3

G4

2 3 4