Você está na página 1de 1

Nós Vamos Invadir Sua Praia

Ultraje a Rigor
Tom: G Em
Mistura sua laia
Introdução: Am Bm C# D Em
Ou foge da raia
Guitarra 2 Sai da tocaia
e|-0--2--5--6--6/7-6/7-6/7-6/7-6/7--12---16-16-16-16-16-16-16---|
b|-1--3--5--6--6/8-6/8-6/8-6/8-6/8--13---17-17-17-17-17-17-17---|
Pula na baia
G|--------------------------------------------------------------|
D|--------------------------------------------------------------|
A|--------------------------------------------------------------|
E|--------------------------------------------------------------|

C B Em
Baixo fica no Mi slepando Agora nós vamos invadir sua praia
G|-----|
D|-----|
A|--7--| 8x Agora se você vai se incomodar
E|-----| Então é melhor se mudar
Am
Guitarra 2 em cima do baixo Não adianta nem nos desprezar
e|---------------| Em
b|---------------|
G|--9--7--6--4---| Se a gente acostumar a gente vai ficar
D|--9--7--6--4---| 8x Bm Am
A|--7--5--4--2---|
E|---------------| A gente tá querendo variar

Em Em
Daqui do morro dá pra ver tão legal E a sua praia vem bem a calhar
O que acontece aí no seu litoral Não precisa ficar nervoso
Am Pode ser que você ache gostoso
Nós gostamos de tudo , nós queremos é
mais Am
Em Ficar em companhia tão saudável
Do alto da cidade até a beira do cais Em
Bm Am Pode até lhe ser bastante recomendável
Mais do que um bom bronzeado
Em Bm Am
Nós queremos estar do seu lado A gente pode te cutucar
Nós tamos entrando sem óleo nem creme Em
Precisando a gente se espreme Não tenha medo , não vai machucar
Am
Trazendo a farofa e a galinha
Em
Levando também a vitrolinha
Bm Am
Separa um lugar nessa areia
Em
Nós vamos chacoalhar a sua aldeia