Você está na página 1de 4

06/12/2018 Cifra Club - Felipe Araújo - Atrasadinha (part.

Ferrugem)

Atrasadinha (part. Ferrugem)


Felipe Araújo
Composição: Diego Barão / Leo Brandão / Wynnie Nogueira

Tom: G

[Intro]

C9 D9(11) H.N.
E|----------x-----------x-------------------|
B|-------3--x--------3--x--------3--7-------|
G|-----0----x------0----x------0----7-------|
D|---2------x----2------x----4------7-------|
A|-3--------x--3--------x--5----------------|
E|------------------------------------------|

Em7
E|------------------------------------------|
B|------------------------------------------|
G|------------------------------------------|
D|----------2-5-4-5/7-----------------------|
A|-0h2--5p2---------------------------------|
E|------------------------------------------|

[Primeira Parte]

C9 D9(11)
E|---------x----------x----------x---------x|
B|-------3-x--------3-x--------3-x-------3-x|
G|-----0---x------0---x------0---x-----0---x|
D|---2-----x----2-----x----4-----x---4-----x|
A|-3-------x--3-------x--5-------x-5-------x|
E|------------------------------------------|

Bm7 Em7
E|-------2-x--------2-x--0------------------|
B|-----3---x------3---x--3------------------|
G|---4-----x----4-----x--0------------------|
D|---------x----------x--2------------------|
A|-2-------x--2-------x--2------------------|
E|-----------------------0------------------|

C9
Botei a melhor roupa
Pra esconder os meus defeitos
D9(11)
Exagerei no perfume, pra te impressionar
Bm7 Em7
https://www.cifraclub.com.br/felipe-araujo/atrasadinha-part-ferrugem/imprimir.html 1/4
06/12/2018 Cifra Club - Felipe Araújo - Atrasadinha (part. Ferrugem)

[Pré-Refrão]

C9
E você chegou
Atrasadinha
D9
Mas tava linda
Bm7
E a boca calou
Em7
Mas meu coração gritou por cima

C9
Vai na fé, aposta nela
D9
Que ela é uma boa menina

[Refrão]

C9
Vamos pular
D9
A parte que eu peço aquele vinho do bom
Bm7
A taça não merece tirar seu batom
Deixa comigo
Em7
Que pra isso eu tenho o dom

C9
Vamos pular
D9
A parte que eu peço aquele vinho do bom
Bm7
A taça não merece tirar seu batom
Deixa comigo
Em7
Que pra isso eu tenho o dom

Am
E daí que é o nosso primeiro encontro?
C9
Hoje eu te beijo e pronto

( G C9 G C9 )

[Pré-Refrão]

https://www.cifraclub.com.br/felipe-araujo/atrasadinha-part-ferrugem/imprimir.html 2/4
06/12/2018 Cifra Club - Felipe Araújo - Atrasadinha (part. Ferrugem)

C9
E você chegou
Atrasadinha
D9
Mas tava linda
Bm7
E a boca calou
Em7
Mas meu coração gritou por cima

C9
Vai na fé, aposta nela
D9
Que ela é uma boa menina

[Refrão]

C9
Vamos pular
D9
A parte que eu peço aquele vinho do bom
Bm7
A taça não merece tirar seu batom
Deixa comigo
Em7
Que pra isso eu tenho o dom

C9
Vamos pular
D9
A parte que eu peço aquele vinho do bom
Bm7
A taça não merece tirar seu batom
Deixa comigo
Em7
Que pra isso eu tenho o dom

Am
E daí que é o nosso primeiro encontro?
C9
Hoje eu te beijo e pronto

( G C9 G )

C9
Hoje eu te beijo e pronto

( G C9 G )

https://www.cifraclub.com.br/felipe-araujo/atrasadinha-part-ferrugem/imprimir.html 3/4
06/12/2018 Cifra Club - Felipe Araújo - Atrasadinha (part. Ferrugem)

C9 G
Hoje eu te beijo e pronto

Am Bm7 C9 D9 D9(11) Em7


1
2 3 1 1 2
3 2 1 3
4 2
3 4 3

1
2 3

https://www.cifraclub.com.br/felipe-araujo/atrasadinha-part-ferrugem/imprimir.html 4/4

Você também pode gostar