Você está na página 1de 4

Fernando e Sorocaba - Bom Rapaz (part.

Jorge & Mateus)

[Intro 2x]

G5
E|------------------------------------------|
B|-3-----3-----3----3-----3-----3-----------|
G|-----0-----0----------0-----0-------------|
D|---5-----5-----5----5-----5-----5---------|
A|------------------------------------------|
E|------------------------------------------|

[Primeira Parte]

Parte 1 de 7
Am7 C
E|------------------------------------------|
B|-1-----0-----1--5-----5-----5-------------|
G|-----0-----0--------0-----0---------------|
D|---2-----2--------5-----5-----5-----------|
A|-0--------------3-------------------------|
E|------------------------------------------|

Parte 2 de 7
E|------------------------------------------|
B|-3-----3-----3----3-----3-----3-----------|
G|-----0-----0----------0-----0-------------|
D|---5-----5-----5----4-----4-----4---------|
A|------------------------------------------|
E|------------------------------------------|

Repete Parte 1 de 7
Am7 C
E|------------------------------------------|
B|-1-----0-----1--5-----5-----5-------------|
G|-----0-----0--------0-----0---------------|
D|---2-----2--------5-----5-----5-----------|
A|-0--------------3-------------------------|
E|------------------------------------------|

Parte 3 de 7
E|------------------------------------------|
B|-3-----3-----3----3-----3-----3-----------|
G|-----0-----0----------0-----0-------------|
D|---5-----5-----5----5-----5---------------|
A|------------------------------------------|
E|------------------------------------------|

Parte 4 de 7
G D4
E|-----x-----3-3-3---------------------------|
B|---0-x-0-0-0-0-0--------8-----7------------|
G|---0-x-0-0-0-0-0------0-----0--------------|
D|---0-x-0-0-0-0-0----7-----7----------------|
A|-----x---2--------5------------------------|
E|-3---x-3-3---------------------------------|
Parte 5 de 7
Em C
E|------------------------------------------|
B|-8-----8-----8--5-----5-----3-------------|
G|-----0-----0--------0-----0---------------|
D|---9-----9--------5-----5-----------------|
A|-7--------------3-------------------------|
E|------------------------------------------|

Repete Parte 4 de 7
G D4
E|-----x-----3-3-3---------------------------|
B|---0-x-0-0-0-0-0--------8-----7------------|
G|---0-x-0-0-0-0-0------0-----0--------------|
D|---0-x-0-0-0-0-0----7-----7----------------|
A|-----x---2--------5------------------------|
E|-3---x-3-3---------------------------------|

Parte 6 de 7
Em C D11
E|------------------------------------------|
B|-8-----8-----8------5--------7------------|
G|-----0-----0------------------------------|
D|---9-----9--------5---5----7---7----------|
A|-7--------------3--------5----------------|
E|------------------------------------------|

Parte 7 de 7
E|------------------------------------------|
B|-----8h10-8--10p8h-10/12~-----------------|
G|------------------------------------------|
D|---9--------------------------------------|
A|-7----------------------------------------|
E|------------------------------------------|

Am7 C
Vai ficar olhando ou vai levar
G5
Essa joia pra sua casa?
Am7 C
Olha, você tá ouvindo um sim
G5
De quem disse não pra tantos caras

G D11
Ela já se machucou demais
Em C
Promete que vai ser um bom rapaz?
G D11
E se ela disser: Vem! Cê pega e vai
Em
E não solta nunca mais
C D11 Em
E não solta nunca mais

[Refrão]
G D11
Outra dessa, cê não acha
Em C
Olha como ela te abraça
G
E você ganhou de graça
D11
Corre, que essa chance passa
G C/G G
Corre, senão ela escapa

[Base Solo] G Em7 C G D9

[Primeira Parte]

Am7 C
Vai ficar olhando ou vai levar
G D11
Essa joia pra sua casa?
Am7 C
Olha, você tá ouvindo um sim
G D9
De quem disse não pra tantos caras

G D11
Ela já se machucou demais
Em C
Promete que vai ser um bom rapaz?
G D11
E se ela disser: Vem! Cê pega e vai
Em
E não solta nunca mais
C D11 Em C
E não solta nunca mais

[Refrão]

G D11
Outra dessa, cê não acha
Em C
Olha como ela te abraça
G
E você ganhou de graça
D9
Corre, que essa chance passa
Em7 C
Corre, senão ela escapa

G
Outra dessa, cê não acha
D9
(Outra dessa, cê não acha)
Em7
Olha como ela te abraça
C
(Olha como ela te abraça
G
E você ganhou de graça
D9
Corre, que essa chance passa
Em7 C
Corre, senão ela escapa

G D9
Uh ô ô..
Em7 C G
Corre, que essa chance passa

----------------- Acordes -----------------


Capotraste na 4ª casa
Am7* = X 0 2 0 1 0 - (*C#m7 na forma de Am7)
C* = X 3 5 0 5 0 - (*E na forma de C)
C/G* = 3 X 2 0 1 3 - (*E/B na forma de C/G)
D11* = X 5 7 0 7 X - (*F#11 na forma de D11)
D4* = X 5 7 0 8 X - (*F#4 na forma de D4)
D9* = X X 0 2 3 0 - (*F#9 na forma de D9)
Em* = X 7 9 0 8 X - (*G#m na forma de Em)
Em7* = 0 2 2 0 3 0 - (*G#m7 na forma de Em7)
G* = 3 2 0 0 0 3 - (*B na forma de G)
G5* = X X 5 0 3 X - (*B5 na forma de G5)