Você está na página 1de 4

01/01/2019 Cifra Club - Gusttavo Lima - Zé da Recaída

Zé da Recaída
Gusttavo Lima
Composição: Junior Gomes / Murilo Huff / Ricardo Vismarck / Ronael

Tom: F

[Intro] F C Dm Bb

E|-5-8-----------8---------------5-5h6p5--------------|
B|-6---8/10-8--8---8/10-8--8\6-8---------8-8\6/10-6~--|
G|----------------------------------------------------|
D|----------------------------------------------------|
A|----------------------------------------------------|
E|----------------------------------------------------|

[Riff Guitarra]

E|---13---12---10~------------------------------------|
B|-x----x----x----------------------------------------|
G|----------------------------------------------------|
D|----------------------------------------------------|
A|----------------------------------------------------|
E|----------------------------------------------------|

[Primeira Parte]

F C
To há mais de duas horas
Dm Bb
Ensaiando uma recaída
F C
Número já tá na tela
Dm Bb
É só apertar o verde que liga

[Pré-Refrão]

Gm C
Me vê uma dose pra mudar minha vida
Dm F
Da melhor que você tem
Bb C Dm
Pra ver se com inspiração em Old Parr, ela vem
F Bb
O empurrãozinho que falta, ai ai ai
C
Pra completar essa chamada, ah

https://www.cifraclub.com.br/gusttavo-lima/ze-da-recaida/imprimir.html 1/4
01/01/2019 Cifra Club - Gusttavo Lima - Zé da Recaída

[Refrão]

F
Atende aí
C
O Zé da recaída tá ligando aí
Eu não to nem aí
Dm
Se salvou meu nome assim
O importante é que ao vivo
Bb C
Cê me chama de benzim

F
Atende aí
C
O Zé da recaída tá ligando aí
Eu não to nem aí
Dm
Se salvou meu nome assim
O importante é que ao vivo
Bb C
Cê me chama de benzim

[Solo] F C Dm Bb
F C Dm Bb

E|-5-8-----------8---------------5-5h6p5--------------|
B|-6---8/10-8--8---8/10-8--8\6-8---------8-8\6/10-6~--|
G|----------------------------------------------------|
D|----------------------------------------------------|
A|----------------------------------------------------|
E|----------------------------------------------------|

E|-5-8-----------8---------------5-5h6p5--------------|
B|-6---8/10-8--8---8/10-8--8\6-8---------8-8\6/10-6~--|
G|----------------------------------------------------|
D|----------------------------------------------------|
A|----------------------------------------------------|
E|----------------------------------------------------|

E|-12/13-13-13-13--12-10h12p10-8--8/10----------------|
B|----------------------------------------------------|
G|----------------------------------------------------|
D|----------------------------------------------------|
A|----------------------------------------------------|
E|----------------------------------------------------|

https://www.cifraclub.com.br/gusttavo-lima/ze-da-recaida/imprimir.html 2/4
01/01/2019 Cifra Club - Gusttavo Lima - Zé da Recaída

[Pré-Refrão]

Gm C
Me vê uma dose pra mudar minha vida
Dm F
Da melhor que você tem
Bb C Dm
Pra ver se com inspiração em Old Parr, ela vem
F Bb
O empurrãozinho que falta, ai ai ai
C
Pra completar essa chamada, ah

[Refrão]

F
Atende aí
C
O Zé da recaída tá ligando aí
Eu não to nem aí
Dm
Se salvou meu nome assim
O importante é que ao vivo
Bb C
Cê me chama de benzim

F
Atende aí
C
O Zé da recaída tá ligando aí
Eu não to nem aí
Dm
Se salvou meu nome assim
O importante é que ao vivo
Bb C C#
Cê me chama de benzim

F#
Atende aí
C#
O Zé da recaída tá ligando aí
Eu não to nem aí
D#m
Se salvou meu nome assim
O importante é que ao vivo
B C#
Cê me chama de benzim

https://www.cifraclub.com.br/gusttavo-lima/ze-da-recaida/imprimir.html 3/4
01/01/2019 Cifra Club - Gusttavo Lima - Zé da Recaída

F#
Atende aí

[Final]

E|-6-9-----------9------------------------------------|
B|-7---9/11-9--9---9/11-9--7~-------------------------|
G|----------------------------------------------------|
D|----------------------------------------------------|
A|----------------------------------------------------|
E|----------------------------------------------------|

B Bb C C# D#m Dm
1 4ª 1 1
2 2 2
2 3 4 3 2 3 4 3 3
2 3 4 4

F F# Gm

2
3 4 2
3 4
3 4

https://www.cifraclub.com.br/gusttavo-lima/ze-da-recaida/imprimir.html 4/4