Você está na página 1de 6

Ainda Bem

Marisa Monte
Composição: Arnaldo Antunes / Marisa Monte

Tom: Dm

(Intro)

Solo Intro:

Dm
E|-----1-3-5-3h5p3-1------------------------|
B|--3--3-5-6-5-----3------------------------|
G|--2---------------------------------------|
D|--0---------------------------------------|
A|--0---------------------------------------|
E|--0---------------------------------------|

Dm
Ainda bem
Bb/D
Que agora encontrei você
C
Eu realmente não sei
Dm A7
O que eu fiz pra merecer você

(dedilhado intro)

1ª parte)

Dm
E|----------1-----1---1---------------------
B|-------3--3-----3---3---------------------
G|-----2----2-----2---2---------------------
D|---0---0----0-0---0---0-------------------
A|------------------------------------------
E|-0----------------------------------------

2ª parte)

Bb/D
E|----------1-----1---1---------------------
B|-------3--3-----3---3---------------------
G|-----3----3-----3---3---------------------
D|---3---0----0-0---0---0-------------------
A|------------------------------------------
E|-0----------------------------------------
3ª parte)

C
E|------------------------------------------
B|-------3h5--------------------------------
G|-----5-----5-----5---5--------------------
D|---5-------5-----5---5--------------------
A|-3-----3-----3-3---3---3------------------
E|------------------------------------------

4ª parte)

Dm A7
E|-------0h1p0------------------------------
B|-------3-----3----------2-----------------
G|-----2---------2------0---0---0-----------
D|---0----------------2---------------------
A|------------------0-----0---0-------------
E|-0----------------------------------------

(primeira parte)

Dm
Porque ninguém
Bb/D
Dava nada por mim
C
Quem dava, eu não tava a fim
Dm A7
Até desacreditei de mim

(dedilhado primeira parte e refrão)

1ª parte)

Dm
E|-------0-0h1p0-1--------1-----------------
B|-----3-3--------------3-3---3--3----------
G|---2---2------------2---2---2--2----------
D|-0----------------0-----------------------
A|---------0-----0----------0--0------------
E|------------------------------------------

2ª parte)
Bb/D
E|------------------------------------------
B|-------1-1h3p1-3--------3-----------------
G|-----3-3-3------------3-3---3---3---------
D|---3---3------------3---3---3---3---------
A|------------------------------------------
E|-0-------0-----0--0-------0---0-----------

3ª parte)

C
E|------------------------------------------
B|-------3-3h5p3-5--------5-----------------
G|-----5-5-5------------5-5---5---5---------
D|---5---5------------5---5---5---5---------
A|-3-------3-----3--3-------3---3-----------
E|------------------------------------------

4ª parte)

Dm A7
E|---------0h1p0----------------------------
B|-------3-------3--2-----2-----------------
G|-----2----------------0-----0---0---------
D|---0----------------2---------------------
A|------------------0-------0---0-----------
E|-0----------------------------------------

(segunda parte)

Gm
O meu coração
A7
Já estava acostumado
Gm
Com a solidão
A7
Quem diria que a meu lado

(dedilhado segunda parte)

1ª parte)
Gm
E|-------3----------------3-----------------
B|-------3----------------3-----------------
G|-----3-3---3---3------3-3---3---3---------
D|---5-------3---3----5-------3---3---------
A|------------------------------------------
E|-5-------5---5----5-------5---5-----------

2ª parte)

A7
E|-------0----------------0-----------------
B|-------2----------------2-----------------
G|-----0-0---0---0------0-0---0---0---------
D|---2-------2---2----2-------2---2---------
A|-0-------0---0----0-------0---0-----------
E|------------------------------------------

(refrão)
Dm
Você iria ficar
Bb/D
Você veio pra ficar
C
Você que me faz feliz
Dm A7
Você que me faz cantar, assim...

(segunda parte)

Gm
O meu coração
A7
Já estava aposentado
Gm
Sem nenhuma ilusão
A7
Tinha sido maltratado

(refrão)
Dm
Tudo se transformou
Bb/D
Agora você chegou
C
Você que me faz feliz
Dm A7
Você que me faz cantar, assim...
Dm
Na na na na...
Bb/D
Na na na na na na na...
C
Na na na na na na na...
Dm A7
Na na na na na na na... eh...

(segunda parte)

Gm
O meu coração
A7
Já estava acostumado
Gm
Com a solidão
A7
Quem diria que a meu lado

(refrão)
Dm
Você iria ficar
Bb/D
Você veio pra ficar
C
Você que me faz feliz
Dm A7
Você que me faz cantar, assim...

(segunda parte)

Gm
O meu coração
A7
Já estava aposentado
Gm
Sem nenhuma ilusão
A7
Tinha sido maltratado

(refrão final)
Dm
Tudo se transformou
Bb/D
Agora você chegou
C
Você que me faz feliz
Dm A7
Você que me faz cantar, assim...
Dm
Na na na na...
Bb/D
Na na na na na na na...
C
Na na na na na na na...
Dm A7
Na na na na na na na eh...
Dm
Ainda bem

(solo final)

Dm
E|----1-3-5---------------------------------
B|----3-5-6---------------------------------
G|------------------------------------------
D|--0---------------------------------------
A|------------------------------------------
E|------------------------------------------

A7 Bb/D C Dm Gm
3ª 1 1 1
1 2 2 2
2 3 3
3 4
3 4