Você está na página 1de 4

25/01/2019

Composição: Gabriela Rocha / Hananiel Eduardo

Tom: AmAm

[Intro] F7M(9)

Am

G4(6)

F7M(9)

Am

G4(6)

[Solo da Introdução]

Cifra Club - Gabriela Rocha - Lugar Secreto

da Introdução] Cifra Club - Gabriela Rocha - Lugar Secreto E| - 8 - 7 -

E|-8-7-8-----8----------------------------------------|

B|--------8---6-5-------------------------------------|

G|-----------------5-7--------------------------------|

D|----------------------------------------------------|

A|----------------------------------------------------|

E|----------------------------------------------------|

[Primeira Parte]

F7M(9)

Am

G4(6)

Tu és tudo o que eu mais quero

F7M(9)

Am

G4(6)

O meu fôlego, Tu és

 

F7M(9)

Am

G4(6)

Em Teus braços, é o meu lugar

F7M(9)

Am

G4(6)

Estou aqui, estou aqui

F7M(9)

Am

G4(6)

F7M(9)

Pai, eu amo Sua presença Am

G4(6)

Teu sorriso é vida em mim

F7M(9)

Am

G4(6)

Eu seguro em Suas mãos

F7M(9)

Am

G4(6)

Confio em Ti,

confio em Ti

[Refrão]

 

F7M(9)

Quero ir mais fundo

Dm7(9)

Leva-me mais perto Am Onde eu Te encontro

25/01/2019

Em7

No lugar secreto

F7M(9)

Aos Teus pés, me rendo

Am

Pois a Tua glória quero ver

Dm7(9)

G4(6)

Cifra Club - Gabriela Rocha - Lugar Secreto

[Base Solo] F7M(9)

Dm7(9)

Am

Em7

F7M(9)

Dm7(9)

Am

G4(6)

[Solo]

E|----------------------------------------------------|

B|-----5-8-5-5------5-8-5-5------5-8-10-10--10-12-5-5-|

G|-5-7----------5-7----------5-7----------------------|

D|----------------------------------------------------|

A|----------------------------------------------------|

E|----------------------------------------------------|

[Primeira Parte]

F7M(9)

Am

G4(6)

F7M(9)

Pai, eu amo Sua presença Am

G4(6)

Teu sorriso é vida em mim

F7M(9)

Am

G4(6)

Eu seguro em Suas mãos

F7M(9)

Am

G4(6)

Confio em Ti,

confio em Ti

[Refrão]

F7M(9)

Quero ir mais fundo

Dm7(9)

Leva-me mais perto Am Onde eu Te encontro

Em7

No lugar secreto

F7M(9)

Aos Teus pés, me rendo

Am

Pois a Tua glória quero ver

Dm7(9)

F7M(9)

G4(6)

Quero ir mais fundo

25/01/2019

Dm7(9)

Leva-me mais perto Am Onde eu Te encontro

Em7

No lugar secreto

F7M(9)

Aos Teus pés, me rendo

Am

Pois a Tua glória quero ver

Dm7(9)

[Segunda Parte]

F7M(9)

G4(6)

Tudo o que eu mais quero é Te ver

Dm7(9)

Me envolva com Tua glória e poder Am Tua majestade é real

Em7

Tua voz ecoa em meu ser

F7M(9)

Tudo o que eu mais quero é Te ver

Dm7(9)

Me envolva com Tua glória e poder Am Tua majestade é real

Em7

Tua voz ecoa em meu ser

F7M(9)

Tudo o que eu mais quero é Te ver

Dm7(9)

Me envolva com Tua glória e poder Am Tua majestade é real

Em7

Tua voz ecoa em meu ser

F7M(9)

Tudo o que eu mais quero é Te ver

Dm7(9)

Me envolva com Tua glória e poder Am Tua majestade é real

Cifra Club - Gabriela Rocha - Lugar Secreto

25/01/2019

G4(6)

Tua voz ecoa em meu ser

[Refrão]

F7M(9)

Quero ir mais fundo

Dm7(9)

Leva-me mais perto Am Onde eu Te encontro

Em7

No lugar secreto

F7M(9)

Aos Teus pés, me rendo

Am

Pois a Tua glória quero ver

Dm7(9)

G4(6)

Cifra Club - Gabriela Rocha - Lugar Secreto

[Base Solo] F7M(9)

Dm7(9)

Am

Em7

F7M(9)

Dm7(9)

Am

G4(6)

F7M(9)

[Solo]

E|----------------------------------------------------|

B|-----5-8-5-5------5-8-5-5------5-8-10-10--10-12-5-5-|

G|-5-7----------5-7----------5-7----------------------|

D|----------------------------------------------------|

A|----------------------------------------------------|

E|----------------------------------------------------|

Am 1 2 3
Am
1
2
3
Dm7(9) 1 2
Dm7(9)
1
2
Em7 1 2 4
Em7
1
2
4
F7M(9) G4(6) P 1 1 3 4 3
F7M(9)
G4(6)
P
1
1
3
4
3