Você está na página 1de 3

Razões e Emoções

Nx Zero
Composição: Di Ferrero / Gee Rocha

Tom: E

Introdução: C#m7
Se estou cantando agora pra você
E5 B11/D# C#m7 B4 B4
Ouvir com outra pessoa
Solo:
Segunda Parte:
Parte 1
E5
e|-------------------------------------------| É que as vezes acho
B|-7---7---7---7------7---7---7---7----------| B11/D#
G|---9---9---9---9------9---9---9---9--------| Que não sou o melhor pra você
D|-------------------------------------------| C#m7 B4
A|-------------------------------------------| Mas as vezes acho que poderíamos ser
E|-------------------------------------------| F#4(7)
O melhor pra nós dois
E9/G# A5(9)
Parte 2 Só quero que saiba

e|------------------------------------------- Refrão:
B|-7---7---7---7---10---10---9---9-----------
G|---9---9---9---9----9----9---9---9--------- C#m7 A5(9)
D|------------------------------------------- Entre razões e emoções a saída
A|------------------------------------------- E B4
E|------------------------------------------- É fazer valer a pena
C#m7 A5(9)
e|---------| Se não agora depois não importa
B|---------| E B4
G|---------| (3x) Por você posso esperar
D|---------|
A|---------| Repete Intro a partir da Parte 2 do Solo:
E|---------|
Parte 2

Repete Parte 1 e|-------------------------------------------


B|-7---7---7---7---10---10---9---9-----------
e|-------------------------------------------| G|---9---9---9---9----9----9---9---9---------
B|-7---7---7---7------7---7---7---7----------| D|-------------------------------------------
G|---9---9---9---9------9---9---9---9--------| A|-------------------------------------------
D|-------------------------------------------| E|-------------------------------------------
A|-------------------------------------------|
E|-------------------------------------------| e|---------|
B|---------|
G|---------| (3x)
Primeira Parte: D|---------|
A|---------|
E5 B11/D# E|---------|
Dizer o que eu posso dizer
Repete Parte 1 C#m7 A7M(9)
Entre razões e emoções a saída
e|-------------------------------------------| E5 B4
B|-7---7---7---7------7---7---7---7----------| É fazer valer a pena
G|---9---9---9---9------9---9---9---9--------| C#m7 A7M(9)
D|-------------------------------------------| Se não agora depois não importa
A|-------------------------------------------| E5 B4 A5(9)
E|-------------------------------------------| Por você posso esperar

Posso Esperar
Repete a Primeira Parte:
Refrão Final:
E5 B11/D#
Sentir o que eu posso sentir C#m7 A5(9)
C#m7 Entre razões e emoções a saída
Se em um segundo tudo acabar E B4
B4 É fazer valer a pena
Não vou ter como fugir C#m7 A5(9)
Se não agora depois não importa
Segunda Parte: E B4
Por você posso esperar
E5
É que as vezes acho C#m7 A5(9)
B11/D# Entre razões e emoções a saída
Que não sou o melhor pra você E B4
C#m7 B4 É fazer valer a pena
Mas as vezes acho que poderíamos ser C#m7 A5(9)
F#4(7) Se não agora depois não importa
O melhor pra nós dois E B4 A5(9)
E9/G# A5(9) Por você posso esperar
Só quero que saiba A5(9)
Posso esperar
Refrão Dedilhado: A5(9)
Posso esperar
Parte 1 A5(9)
Posso esperar
C#m7 A7M(9)
e|-------0------------------0---------------| Dedilhado:
B|---------0------------------0-------------|
G|---6-------6----------6-------6-----------| e|---------0--------------0------------------|
D|-----6-------6----------6-------6---------| B|---0-------0--------------0----------------|
A|-4------------------0---------------------| G|-----8-------8-8\6--6-------6--6/----------|
E|------------------------------------------| D|-9-----9-----9-9\7----7-----7--7/----------|
A|-------------------------------------------|
Parte 2 E|-------------------------------------------|

E5 B4
e|-------0------------------0---------------| e|---------0--------------0------0-----------|
B|---------0------------------0-------------| B|---0-------0--------------0----0-----------|
G|---9-------9----------4-------4-----------| G|-----8-------8-8\6--6-------6--6-----------|
D|-----9-----9------------4-----4-----------| D|-9-----9-----9-9\7----7-----7--7-----------|
A|-7------------------2---------------------| A|-------------------------------------------|
E|------------------------------------------| E|-------------------------------------------|
A5(9) A7M(9) B11/D# B4 C#m7 E
6ª 1 2 6ª 1 4ª 1 1
1 2 1 2 3
3 3 4
4 3 4

E5 E9/G# F#4(7)
7ª 1
1 1
3 4
2 3 4 2 3 4