Você está na página 1de 2

Composição: Juninho Afram

Tom: D

Solo:

E|---------9-12-10p9------9-------9-----------------------9-10-9h10p9--------|

B|------10-------------12---10-12---12-10----------12~----------------12-----|

G|----9--------------------------------------11-12---------------------------|

D|---------------------------------------------------------------------------|

A|---------------------------------------------------------------------------|

E|---------------------------------------------------------------------------|

E|------------------------------------14p12--14/17--14-----------------------|

B|--10-10-------------------14p12--------------------------------------------|

G|--------------------12p11-----------------------------16b---15-17-15-------|

D|-----------12p11-----------------------------------------------------------|

A|---------------------------------------------------------------------------|

E|---------------------------------------------------------------------------|

E|--------------14p10-12p10------------10-----------10---------------------9-|

B|-16b--16b--------------------------------------------------------------|

G|--------------------------------14----------12-14-------14-12-11-9-11-12---|

D|---------------------------------------------------------------------------|

A|---------------------------------------------------------------------------|

E|---------------------------------------------------------------------------|

E|-10-12-10-9---------9------------------------------------------------------|

B|----------------------------------------7----------------------------------|

G|---------------12-11----12-11-9-7-9----9-7-6~--------11\9-----9\7----------|

D|-----------------------------------------------11/12-------11--------------|

A|---------------------------------------------------------------------------|

E|---------------------------------------------------------------------------|

E|---------------------------------------------------------------------------|

B|-----------------------------------2-3-2h3p2------2/3~--3/5--6--2--3--2--0--|

G|---7\6----6\4----4\2-----2-4------------------4-2-3/4~--4/6--5--2--4--2--0--|

D|9-------7-------5-------4--------------------------------------------------|

A|---------------------------------------------------------------------------|

E|---------------------------------------------------------------------------|

E|-----------------------------------------------------5-7--7/9---5--5--5----|

B|--------0--2--3--2--0--0-----------------5-7-8------------8/10--7--5--5----|

G|-2-2--0--2--4--2--0--0---------4-6-7---------------------------------------|

D|-4-4-----------------------4-5-7-------------------------------------------|

A|---------------------------------------------------------------------------|

E|---------------------------------------------------------------------------|

E|----------9-9h10p9-----9-10/14-15-14-12----------9-------------------------|

B|------12-----------12-------------------15-14-12---15-14-12-9--------------|

G|6/11-----------------------------------------------------------11-12-------|

D|---------------------------------------------------------------------------|

A|---------------------------------------------------------------------------|

E|---------------------------------------------------------------------------|