Você está na página 1de 3

Caifanes

Afuera(TAB)

Intro: 2 veces
|----------------------|---------------------|-----------------------|----|
|----------------------|---------------------|-----------------------|----|
|----------------------|---------------------|-----------------------|----|
|--9--7-------9-7---7--|-9--7-------9-7---7--|---9--7-------9-7---7--|-9--|
|--------9--------9----|-------9--------9----|---------9--------9----|----|
|----------------------|---------------------|-----------------------|----|

Verso:
|------------------------|--------------------------|
|------------------------|--------------------------|
|------------------------|--------------------------|
|-------2-0---------2-0--|-------2-0----------2--0--|
|-----2-----------2------|-----2-----------2--------|
|--0-----------0---------|--0-----------0-----------|

Coro:
|-----2---------|-----2----------|-----2---------|-----2----------|
|-0-0---3-3-2-3-|-0-0---3-3-2-3--|-0-0---3-3-2-3-|-2-2---3-3-2-3--|
|---------------|----------------|---------------|----------------|
|---------------|----------------|---------------|----------------|
|---------------|----------------|---------------|----------------|
|---------------|----------------|---------------|----------------|

La parte de en medio:

|-10-7-9-----------10--7-9----------|-10-7-9----------|
|--------10-7--------------10-7-----|--------10-7-----|
|-------------9-7---------------9-7-|-------------9-7-|
|-----------------------------------|-----------------|
|-----------------------------------|-----------------|
|-----------------------------------|-----------------|

|--------------------|--------------------|
|--------------------|--------------------|
|--7--7--7--7-7-7-7--|--7-7-7-7-6-4-2-2/4-|
|--------------------|--------------------|
|--------------------|--------------------|
|--------------------|--------------------|

|-------------------------|----------------------------|
|-------------------------|----------------------------|
|--7-7-7-7-6-7-9/11--11-11|--11--9--7--6-4-------7--9--|
|-------------------------|----------------------------|
|-------------------------|----------------------------|
|-------------------------|----------------------------|

|-------------------------|----------------------------|
|-------------------------|----------------------------|
|--/11--11---11--11-9-7-9-|-9/11--11--11--11-----7--9--|
|-------------------------|----------------------------|
|-------------------------|----------------------------|
|-------------------------|----------------------------|

|-------------------------|----------------------------|
|-------------------------|----------------------------|
|--/11--11---11--11-14-12-|-11-12-11~~~~~--------7--9--|
|-------------------------|----------------------------|
|-------------------------|----------------------------|
|-------------------------|----------------------------|

|-------------------------|----------------------------|
|-------------------------|----------------------------|
|--/11--11-------14----12-|--11^12^11---9--7----7--9---|
|-------------------------|----------------------------|
|-------------------------|----------------------------|
|-------------------------|----------------------------|

|-------------------------|----------------------------|
|-----------10^12-----10--|---------------------12--10-|
|--/11--11----------------|--11~~~~~-------------------|
|-------------------------|----------------------------|
|-------------------------|----------------------------|
|-------------------------|----------------------------|

|-------------------------|----------------------------|
|--12--10--12-------------|----------------------------|
|-------------11-----9--7-|--9--7----------------------|
|-------------------------|---------9--7--9------------|
|-------------------------|----------------------------|
|-------------------------|----------------------------|
|-------------------------|
|-------------------------|
|------------------6--~~~~|
|-----9--9---7--9-----9---|
|--/9---------------------|
|-------------------------|

|-10--7-7--10--7-7---5-5-7-8-7----5--2-2--5--2-2--0-0-2-3-2--|
|--7--7-7---7--7-7---5-5-7-8-7----7--3-3--7--3-3--2-2-3-5-3--|
|------------------------------------------------------------|
|------------------------------------------------------------|
|------------------------------------------------------------|
|------------------------------------------------------------|

Final:

|-----3-2-------3-2-------3-2-------3-2-|---|
|-0-0-------0-0-------0-0-------0-0-----|-0-|
|---------------------------------------|---|
|---------------------------------------|---|
|---------------------------------------|---|
|---------------------------------------|---|