Você está na página 1de 3

Caifanes

Ayer me dijo un ave

e ---------------9------------------------7~-| x 2
B ------------9----9----9--------------7-----|
G --------11---------11---11--------9--------|
D ------9-------------------------9----------|
A -------------------------------------------|
E ---0~------------------------0~------------|

Despues de esto voy a dividir la cancion el cuatro riffs:

riff 1 se toca donde se vea la nota C#m

e ------------------------------------|
B --------------5-----------------5---|
G --------6--4------------6---4-------|
D -----6---------------6--------------|
A ---4--------------4-----------------|
E ------------------------------------|

riff 2 se toca con E


e ----------------------------4-----|
B ------------5------------5--------|
G ---------4------------4-----------|
D ------6------------6--------------|
A ---7------------------------------|
E ----------------------------------|

riff 3 se toca con A


e --------------------|
B ----------5-----5---|
G -------4-----4------|
D --------------------|
A ---7----------------|
E --------------------|

riff 4 se toca con B


e ---------------------|
B -------5-----5-------|
G ----------4----------|
D ---6-----------------|
A ---------------------|
E ---------------------|

Acordes y letra:

C#m(riff1) E(riff2)
Ayer me dijo un ave que volara

C#m(riff1)
por donde no haya ardor

E(riff2)
que lo sufrido no resucita en suenios

C#m(riff1)
y en rezos nunca murio

CORO.

A(riff3) B(riff4)
Que saque el aire de mis ojos

A(riff3) B(riff4)
que abrace el miedo con tus suenios

A(riff3) E(strummed)
que sea un guerrero de sangre

para que nadie te haga danio

SOLO.

e ------7-------------9--7-------------9--12---16--12-----9---11--|
B ----9----9-------7--------9--------9-----------------9----------|
G --9--------9--8---------------6---------------------------------|
D ----------------------------------------------------------------|
A ----------------------------------------------------------------|
E ----------------------------------------------------------------|

e ------7-------------9--7-------------9--12--9-----9-------------|
B ----9----9-------7--------9--------9-----------9-----9----------|
G --9--------9--8---------------6---------------------------------|
D ----------------------------------------------------------------|
A ----------------------------------------------------------------|
E ----------------------------------------------------------------|

C#m(riff1) E(riff2)
Ayer me dijo un ave que volara

C#m(riff1)
hasta desintegrarme

E(riff2)
que la distancia no es cansancio

C#m(riff1) E-B-A(strummed)
es fuerza eres tu

CORO.
INTERLUDE STRINGS.

E-B-A (strummed)
CORO.

A B E-B-A x 3
Para que nadie te haga danio.