Você está na página 1de 5

16/05/2019 Cifra Club - Capital Inicial - Primeiros Erros

Primeiros Erros
Capital Inicial
Composição: Kiko Zambianchi

Tom: D

[Intro] D5(9) D E/D


D5(9) D E/D
D9 D5(9/C#) G6/B
D9 D5(9/C#) G6/B

Parte 1 de 2

D5(9) D E/D
E|-5-5--2h5---5-5-5-2-2-2/4-------4--------|
B|-3-3------5-------3-3-3/5-5---7---5------|
G|-2-2--------------2-2-2/4---4-------4----|
D|-0----------------0----------------------|
A|-----------------------------------------|
E|-----------------------------------------|

E|---4-----4-------------------------------|
B|-7---5---5-------------------------------|
G|-------4-4-------------------------------|
D|---------0-------------------------------|
A|-----------------------------------------|
E|-----------------------------------------|

D5(9) D E/D
E|-5-5--2h5---5-5-5-2-2-2/4-------4--------|
B|-3-3------5-------3-3-3/5-5---7---5------|
G|-2-2--------------2-2-2/4---4-------4----|
D|-0----------------0----------------------|
A|-----------------------------------------|
E|-----------------------------------------|

E|---4-------4-----------------------------|
B|-7---5---7---5---------------------------|
G|-------4-------4-------------------------|
D|-----------------------------------------|
A|-----------------------------------------|
E|-----------------------------------------|

Parte 2 de 2

https://www.cifraclub.com.br/capital-inicial/primeiros-erros/imprimir.html 1/5
16/05/2019 Cifra Club - Capital Inicial - Primeiros Erros

D9 D5(9/C#)
E|-0---------------------------------------|
B|-10------10---------10------10-----------|
G|-11--11--11--11--9--9----9--9---9--------|
D|-0---0---0---0---0-------0------0--------|
A|-----------------------------------------|
E|-----------------9-----9------9----------|

G/B
E|-------------------------7---------------|
B|---8------8--------8-----8---------------|
G|-7-7---7--7---7--7-7---7-----7-----------|
D|-0-----0------0--0-----0-----0-----------|
A|-----------------------------------------|
E|-7---7------7----7---7-----7-------------|

[Primeira Parte]

D5(9) D5(7M/9) D5(9)


Meu caminho é cada manhã
D5(7M/9) Bm7(11)
Não procure saber onde estou
Bm7(9/11) Bm7(11)
Meu destino não é de ninguém
A4(7) D5(9)
E eu não deixo os meus passos no chão
D5(7M/9) D5(9)
Se você não entende não vê
D5(7M/9) Bm7(11)
Se não me vê não entende
Bm7(9/11) Bm7(11)
Não procure saber onde estou
Bm7(9/11) G7M
Se o meu jeito te surpreende

[Segunda Parte]

G4+(6) G7M
Se o meu corpo virasse sol
G4+(6) Em7(9)
Se a minha mente virasse sol
Em7(13) Em7(9)
Mas só chove, chove
Em7(13)
Chove, chove

( D9 D5(9/C#) G6/B )
( D9 D5(9/C#) G6/B )

https://www.cifraclub.com.br/capital-inicial/primeiros-erros/imprimir.html 2/5
16/05/2019 Cifra Club - Capital Inicial - Primeiros Erros

[Primeira Parte]

D5(9) D5(7M/9) D5(9)


Se um dia eu pudesse ver
D5(7M/9) Bm7(11)
Meu passado inteiro
Bm7(9/11) Bm7(11)
E fizesse parar de chover
Bm7(9/11) G7M
Nos primeiros erros

[Segunda Parte]

G4+(6) G7M
Meu corpo viraria sol
G4+(6) Em7(9)
Minha mente viraria sol
Em7(13) Em7(9)
Mas só chove, chove
Em7(13) G7M
Chove, chove

G4+(6) G7M
Meu corpo viraria sol
G4+(6) Em7(9)
Minha mente viraria
Em7(13) Em7(9)
Mas só chove, chove
Em7(13)
Chove, chove

( D E/D )
( D E/D )

[Primeira Parte]

D5(9) D5(7M/9) D5(9)


Se um dia eu pudesse ver
D5(7M/9) Bm7(11)
Meu passado inteiro
Bm7(9/11) Bm7(11)
E fizesse parar de chover
Bm7(9/11) G7M
Nos primeiros erros

[Segunda Parte]

[Segunda Parte]

https://www.cifraclub.com.br/capital-inicial/primeiros-erros/imprimir.html 3/5
16/05/2019 Cifra Club - Capital Inicial - Primeiros Erros

G4+(6) G7M
Meu corpo viraria sol
G4+(6) Em7(9)
Minha mente viraria sol
Em7(13) Em7(9)
Mas só chove, chove
Em7(13) G7M
Chove, chove

G4+(6) G7M
Meu corpo viraria sol
G4+(6) Em7(9)
Minha mente viraria
Em7(13) Em7(9)
Mas só chove, chove
Em7(13) G7M
Chove, chove

G4+(6) G7M
Meu corpo viraria sol
G4+(6) Em7(9)
Minha mente viraria sol
Em7(13) Em7(9)
Mas só chove, chove
Em7(13)
Chove, chove

( D9 D5(9/C#) G6/B )
( D9 D5(9/C#) G6/B )
( D5(9) E/D D5(9) )

A4(7) Bm7(11) Bm7(9/11) D D5(7M/9) D5(9)

1 2 3 2 3 4 1 2 1
2 4 2 2

D9 E/D Em7(13) Em7(9) G/B G6/B


10ª 2 7ª 2 3
3 1 3 1 2 1 4
3 2 3

https://www.cifraclub.com.br/capital-inicial/primeiros-erros/imprimir.html 4/5
16/05/2019 Cifra Club - Capital Inicial - Primeiros Erros

G7M

1
2

https://www.cifraclub.com.br/capital-inicial/primeiros-erros/imprimir.html 5/5