Você está na página 1de 9

Pierce The Veil / A Match Into Water

TUNING:����(C��,F��,B,E,G��,C��)

m:mute
x:brushing
/:slide
h:Hammer-on
Ph:picking harmonics
Q.C.:qatar choking
vib.:vibrato

0:00�`
| --------------------------------|
|.--------------------------------|
| -14--12--11---9---8---9--11-----|
|.x---x---x---x---x---x---x---x-x-|
| x12-x10-x-9-x-7-x-6-x-7-x-9-x-x-|
| x---x---x---x---x---x---x---x-x-|

|-------------------------------- |
|--------------------------------.|
|-------------------------------- |
|--------------------------------.|
|x12-x10-x-9-x-7-x-7-x-6--------- |
|x-8-x-8-x-8-x-8-x-8-x-7--------- |

0:09�` Let's go!


|--------------------------------|
|--------------------------------|
|9-9---9-9-9---9-9-9---9-9-9---9-|
|--------------------------------|
|7-7---7-7-7---7-7-7---7-7-7---7-|
|--------------------------------|

|--------------------------------|
|--------------------------------|
|1212--121212--12-m-12-m-11------|
|--------------------------------|
|1010--101010--10-m-10-m--9------|
|--------------------------------|

0:14�`
|---------------------------------------|
|---------------------------------------|
|m-14/1212-m-1111-9-m--8-m--9-m-11-x-x--|
|---------------------------------------|
|m-12/1010-m--9-9-7-m--6-m--7-m--9-x-x--|
|---------------------------------------|

|---------------------------------------|
|10/12121212121212-m-12-m-10------------|
|------------------------------Ph5(Q.C.)|
|-7/ 9-9-9-9-9-9-9-m--9-m--7------------|
|---------------------------------------|
|---------------------------------------|

0:19�` I kissed the scars on her skin...


|--------------------------------|--------------------------------|
|--------------------------------|--------------------------------|
|--------------------------------|--5---5---5---5---4---4---4---4-|
|--5---5---5---5---5---5---5---5-|7---7---7---7---5---5---5---5---|
|7---7---7---7---7---7---7---7---|--------------------------------|
|--------------------------------|--------------------------------|
��Half Mute

|--------------------------------|--------------------------------|
|--------------------------------|--------------------------------|
|--------------------------------|--4---4---4---4-----------------|
|--4---4---4---4---4---4---4---4-|5---5---5---5-----4---4---4---4-|
|6---6---6---6---6---6---6---6---|----------------6---6---6---6---|
|--------------------------------|--------------------------------|
��Half Mute

0:29�` I screamed out, "God, you vulture....


|--------------------------------|--------------------------------|
|--------------------------------|--------------------------------|
|--------------------------------|5-5-5-5-5-5-5-5-4-4-4-4-4-4-4-4-|
|--------------------------------|--------------------------------|
|7-7-7-7-6-6-5-5-4-4-4-4-3-3-3-3-|--------------------------------|
|--------------------------------|--------------------------------|
��Mute

|--------------------------------|--------------------------------|
|--------------------------------|--------------------------------|
|--------------------------------|--------------------------------|
|4-4-4-4-4-4-4-4-4-4---4---4---4-|4-------------------------------|
|--------------------6---6---6---|6-------------------------------|
|--------------------------------|--------------------------------|
(��Mute )

0:39 Tear it down, break the barricade!!


|--------------------------------|
|8-8---8-8-8---81010--101212--12-|
|--------------------------------|
|5-5---5-5-5---5-7-7---7-9-9---9-|
|--------------------------------|
|--------------------------------|

|--------------------------------|
|1313--131313--131212--121212--12|
|--------------------------------|
|1010--101010--10-9-9---9-9-9---9|
|--------------------------------|
|--------------------------------|

0:44 I hate this flavor with a passion and...


|--------------------------------|
|--------------------------------|
|--------------------------------|
|4-4-4-4-4-4-4-4-4-4-4-4-4-4-4-4-|
|6-6-6-6-6-6-6-6-6-6-6-6-6-6-6-6-|
|--------------------------------|
��mute�@�@�@�@�@�@�@�@�@�@�@�@�@

|----6---6---6---6---6---6-------|
|810--10--10--10--10--10--10-8---|
|------------------------------9-|
|--------------------------------|
|--------------------------------|
|--------------------------------|
h

0:49 How does it feel?..


|--------------------------------|
|---------------1212--121010--10-|
|--------------------------------|
|7--5------------9-9---9-7-7---7-|
|------9-7-----------------------|
|------------5-7-----------------|

|--------------------------------|
|--------------------------------|
|-11------11---------------------|
|---------------1212--121010--10-|
|9-9---9-9-9---9-----------------|
|---------------1010--10-8-8---8-|
m m m m

0:54 Wake up, I know you can...


|--------------------------------|
|--------------------------------|
|--------------------------------|
|--------------------------------|
|9-------9-------9-------9-------|
|--7--10---7--10---7--10---7--10-|

|--------------------------------|
|--------------------------------|
|--------------------------------|
|1010101010101010-9-9-9-9-9-9----|
|-9-9-9-9-9-9-9-9-9-9-9-9-9-9----|
|----------------------------12/0|

0:58 Make me a promise here tonight...


|--------------------------------|--------------------------------|
|--------------------------------|--------------------------------|
|--------------------------------|--------------------------------|
|--------------------------------|----------------------------7---|
|2-2---2-2-2---2-2-2---2-2-2-m---|5-5-5-5-5-5-5-5-5-5-5-5-5-5-5---|
|0-0---0-0-0---0-0-0---0-0-0-m---|3-3-3-3-3-3-3-3-3-3-3-3-3-3-----|

|--------------------------------|--------------------------------|
|--------------------------------|--------------------------------|
|--------------------------------|--------------------------------|
|5-5-5-5-5-5-5-5-5-5-5-5-5-5---4-|5-5-5-5-5-5-5-2-m-2-m-1---------|
|3-3-3-3-3-3-3-3-3-3-3-3-3-3-7-2-|3-3-3-3-3-3-3-3-m-3-m-2---------|
|----------------------------5---|--------------------------------|

1:08 The chemicals will bring you...


|--------------------------------|--------------------------------|
|--------------------------------|--------------------------------|
|--------------------------------|------------------9-m-11--12----|
|--------------------------------|------------------------------5-|
|2-2---2-2-2---2-2-2---2-2-2-m---|5-5-5-5-5-5-5-5-m-7-m--9--10--3-|
|0-0---0-0-0---0-0-0---0-0-0-m---|3-3-3-3-3-3-3-3-m---------------|

|-----------------------------------------------------------------|
|-----------------------------------------------------------------|
|-----------------------------------------------------------------|
|--5-5-5-5-5-5-5-5-5-5-5-5-5---4-m--------------------------------|
|--3-3-3-3-3-3-3-3-3-3-3-3-3-7-2-m--------------------------------|
|----------------------------5------------------------------------|

1:18 (Oh, yeah) Pretend like I don't entice you...


|--------------------------------|
|--------------------------------|
|--------------------------------|
|--------------------------------|
|7---5-7---------7---5-7---------|
|--7-----7-5-3-0---7-----7-5-3-0-|

|--------------------------------|
|--------------------------------|
|--2---------------2-------------|
|------5-----4-5-------5-----4-5-|
|2---2---2-2-----2---2---2-2-----|
|--------------------------------|
h h

1:23 I've seen you circling the sky....


|--------------------------------|
|--------------------------------|
|--5---4-----------5---4---------|
|--------5---5/7---------5---5/7-|
|3---3-----3-----3---3-----3-----|
|--------------------------------|

|--------------------------------|
|------------------5---4---------|
|--5-2-4-2-----------4---2-------|
|------------4-2-----------------|
|----------------2---------2-m---|
|3---------3---------------------|

1:28 traitor!! I will never be taken for...


|7-7---7-7-7---7-7-7---7-7-7---7-|1010--101010--101010--101010--10-|
|8-8---8-8-8---8-8-8---8-8-8---8-|-7-7---7-7-7---7-7-7---7-7-7---7-|
|9-9---9-9-9---9-9-9---9-9-9---9-|-7-7---7-7-7---7-7-7---7-7-7---7-|
|--------------------------------|---------------------------------|
|--------------------------------|---------------------------------|
|--------------------------------|---------------------------------|
��Another guitar

1:33 again.....
|10----------10--------------10--|12----------12--11----------11---|
|-----8-----------8-------8------|----11--------------12-----------|
|--------11----------11----------|--------11--------------11-------|
|--------------------------------|---------------------------------|
|--------------------------------|---------------------------------|
|--------------------------------|---------------------------------|
��Arp.

1:38 Say a prayer for...


|7-7---7-7-7---7-7-7---7-7-7---7-|
|8-8---8-7-7---7-8-8---8-7-7---7-|
|7-7---7-7-7---7-7-7---7-7-7---7-|
|--------------------------------|
|--------------------------------|
|--------------------------------|

1:40 you. I know that you're....


|--------------------------------|--------------------------------|
|--------------------------------|--------------------------------|
|4-4---4-4-4---4-4-4---4-4-4---4-|5-5---5-5-5---5-5-5---5-5-5---5-|
|4-4---4-4-4---4-4-4---4-4-4---4-|5-5---5-5-5---5-5-5---5-5-5---5-|
|2-2---2-2-2---2-2-2---2-2-2---2-|3-3---3-3-3---3-3-3---3-3-3---3-|
|--------------------------------|--------------------------------|

1:45 time does it still scare you?


|--------------------------------|
|--------------------------------|
|8-8---8-8-8---81111--111111--11-|
|--------------------------------|
|6-6---6-6-6---6-9-9---9-9-9---9-|
|--------------------------------|

1:48 Make me a promise here tonight...


|--------------------------------|
|--------------------------------|
|-14--12--11---9---8---9--11-----|
|x---x---x---x---x---x---x---x-x-|
|x12-x10-x-9-x-7-x-6-x-7-x-9-x-x-|
|x---x---x---x---x---x---x---x-x-|

|--------------------------------|
|--------------------------------|
|8-------------------------------|
|7-------------------------------|
|6-------------------------------|
|--------------------------------|
��BendUP

1:52 Dreamless in early graves...

|--------------------------------|--------------------------------|
|--------------------------------|--------------------------------|
|--------------------------------|--------------------------------|
|5-5-5-5-5-5-5-5-5-5-5-5-5-5---4-|5-5-5-5-5-5-5-2-m-2-m-1---------|
|3-3-3-3-3-3-3-3-3-3-3-3-3-3-7-2-|3-3-3-3-3-3-3-3-m-3-m-2---------|
|----------------------------5---|--------------------------------|

|--------------------------------|--------------------------------|
|--------------------------------|--------------------------------|
|--------------------------------|------------------9-m-11--12----|
|--------------------------------|------------------------------5-|
|2-2---2-2-2---2-2-2---2-2-2-m---|5-5-5-5-5-5-5-5-m-7-m--9--10--3-|
|0-0---0-0-0---0-0-0---0-0-0-m---|3-3-3-3-3-3-3-3-m---------------|

|--------------------------------|--------------------------------|
|--------------------------------|--------------------------------|
|--------------------------------|---------------12------11-------|
|--5-5-5-5-5-5-5-5-5-5-5-5-5---4-|5-5-5-5-5-5-x-x-----------------|
|--3-3-3-3-3-3-3-3-3-3-3-3-3-7-2-|3-3-3-3-3-3-x-x10-------9-------|
|----------------------------5---|------------x-x-----------------|

2:07 We will bring the tidal wave...


|--------------------------------|
|--------------------------------|
|(9)-----------------------------|
|--------------------------------|
|(7)-----------------------------|
|8-0-8-8-0-8-8-0-8-0-8-8-0-8-8-0-|
��mute

|--------------------------------|
|--------------------------------|
|--------------------------------|
|--------------------------------|
|--------------------------------|
|7-0-7-7-0-7-7-0-6-0-6-6-0-6-6-0-|

|--------------------------------|
|--------------------------------|
|--------------------------------|
|--------------------------------|
|--------------------------------|
|8-0-8-8-0-8-8-0-8-0-8-8-0-8-8-0-|
��mute

|--------------------------------|
|--------------------------------|
|--------------------------------|
|--------------------------------|
|--------------------------------|
|7-0-7-7-0-7-7-0-6-0-6-6-0-6-6-0-|
<<<<<<<<<<<<<<

2:17 We will bring the tidal wave!!!


|--------------------------------|
|--------------------------------|
|--------------------------------|
|--------------------------------|
|--------------------------------|
|8-0-8-8-0-8-8-0-8-0-8-8-0-8-8-0-|

|--------------------------------|
|--------------------------------|
|--------------------------------|
|--------------------------------|
|--------------------------------|
|7-0-7-7-0-7-7-0-6-0-6-6---------|

|--------------------------------|
|--------------------------------|
|--------------------------------|
|--------------------------------|
|--------------------------------|
|8-0-8-8-0-8-8-0-8-0-8-8-0-8-8-0-|

|--------------------------------|
|--------------------------------|
|--------------------------------|
|--------------------------------|
|6-0-6-6-0-6-6-0-9-0-9-9-0-9-9-0-|
|--------------------------------|

2:32 She's mine...


|--------------------------------|--------------------------------|
|12(�~8)--------10(�~8)----------|8(�~8)--------------------------|
|--------------------------------|---------------11(�~8)----------|
|-9(�~8----------7(�~8)----------|5(�~8)--------------------------|
|--------------------------------|----------------9(�~8)----------|
|--------------------------------|--------------------------------|

|--------------------------------|--------------------------------|
|13(�~8)--------12(�~8)----------|10(�~8)---------12------13------|
|--------------------------------|--------------------------------|
|10(�~8)---------9(�~8)----------|-7(�~8)----------9------10------|
|--------------------------------|--------------------------------|
|--------------------------------|--------------------------------|

2:42 night, Until she's satisfied...


|--------------------------------|
|--------------------------------|
|--------------------------------|
|--------------------------------|
|6-6-6-6-6-6-6-6-6-6-6-6-6-6-6-6-|
|7-7-7-7-7-7-7-7-7-7-7-7-7-7-7-7-|
��mute�@�@�@�@�@�@�@<<<<<<<<<<<<<

2:46
|--------------------------------|
|--------------------------------|
|-14--12--11---9---8---9--11-----|
|x---x---x---x---x---x---x---x-x-|
|x12-x10-x-9-x-7-x-6-x-7-x-9-x-x-|
|x---x---x---x---x---x---x---x-x-|

|--------------------------------|
|--------------------------------|
|--------------------------------|
|--------------------------------|
|x12-x10-x-9-x-7-x-7-x-6---------|
|x-8-x-8-x-8-x-8-x-8-x-7---------|

|--------------------------------|
|--------------------------------|
|-14--12--11---9---8---9--11-----|
|x---x---x---x---x---x---x---x-x-|
|x12-x10-x-9-x-7-x-6-x-7-x-9-x-x-|
|x---x---x---x---x---x---x---x-x-|

2:54
|--------------------------------|
|--------------------------------|
|--------------------------------|
|--------------------------------|
|x12-x10-x-9-----7-----7--Ph6----|
|x-8-x-8-x-8-8-8----8------------|
m m m Vib.

2:56 Make me a promise here tonight...


|--------------------------------|--------------------------------|
|--------------------------------|--------------------------------|
|--------------------------------|--------------------------------|
|--------------------------------|----------------------------7---|
|2-2---2-2-2---2-2-2---2-2-2-m---|5-5-5-5-5-5-5-5-5-5-5-5-5-5-5---|
|0-0---0-0-0---0-0-0---0-0-0-m---|3-3-3-3-3-3-3-3-3-3-3-3-3-3-----|

|--------------------------------|--------------------------------|
|--------------------------------|--------------------------------|
|--------------------------------|--------------------------------|
|5-5-5-5-5-5-5-5-5-5-5-5-5-5---4-|5-5-5-5-5-5-5-2-m-2-m-1---------|
|3-3-3-3-3-3-3-3-3-3-3-3-3-3-7-2-|3-3-3-3-3-3-3-3-m-3-m-2---------|
|----------------------------5---|--------------------------------|

3:06 The chemicals will bring you...


|--------------------------------|--------------------------------|
|--------------------------------|--------------------------------|
|--------------------------------|------------------9-m-11--12----|
|--------------------------------|------------------------------5-|
|2-2---2-2-2---2-2-2---2-2-2-m---|5-5-5-5-5-5-5-5-m-7-m--9--10--3-|
|0-0---0-0-0---0-0-0---0-0-0-m---|3-3-3-3-3-3-3-3-m---------------|

|-----------------------------------------------------------------|
|-----------------------------------------------------------------|
|-----------------------------------------------------------------|
|--5-5-5-5-5-5-5-5-5-5-5-5-5---4-5-m------------------------------|
|--3-3-3-3-3-3-3-3-3-3-3-3-3-7-2-3-m------------------------------|
|----------------------------5------------------------------------|

3:16 back!
|--------------------------------|
|------------------------------6-|
|-----12------12------12-------9-|
|--------------------------------|
|-----10------10------10---------|
|0-0-0-----0-0-----0-0-----0-0---|

|--------------------------------|
|----------------------------6---|
|-----12------12--1212121111-9---|
|--------------------------------|
|-----10------10--101010-9-9-----|
|0-0-0-----0-0-------------------|

|--------------------------------|
|------------------------------6-|
|-----12------12------12-------9-|
|--------------------------------|
|-----10------10------10---------|
|0-0-0-----0-0-----0-0-----0-0---|

|--------------------------------|--------------------------------|
|--------------------------------|--------------------------------|
|-----12------12--1212121111-8---|9-m-----------------------------|
|--------------------------------|--------------------------------|
|-----10------10--101010-9-9-6---|7-m-----------------------------|
|0-0-0-----0-0-------------------|--------------------------------|

Interesses relacionados