Você está na página 1de 15

20/05/2019 Cifra Club - Metallica - Nothing Else Matters

Nothing Else Matters


Metallica
Composição: James Hetfield / Lars Ulrich

Tom: Em

[Intro]

(Violão)

Parte 1 de 11

Em
E|-------------0--------------------------|
B|---------0------0-----------------------|
G|-----0--------------0-------------------|
D|----------------------------------------|
A|----------------------------------------|
E|-0--------------------------------------|

Em
E|-------------0--------------------------|
B|---------0------0-----------------------|
G|-----0--------------0-------------------|
D|----------------------------------------|
A|----------------------------------------|
E|-0--------------------------------------|

Em
E|-------------0--------------------------|
B|---------0------0-----------------------|
G|-----0--------------0-------------------|
D|----------------------------------------|
A|----------------------------------------|
E|-0--------------------------------------|

Parte 2 de 11

Em
E|----------0------7--7---------7p0-------|
B|-------0-----0---------0------0----0----|
G|----0---------------------0---0-------0-|
D|----------------------------------------|
A|----------------------------------------|
E|--0-----------------0-------------------|

Parte 3 de 11

https://www.cifraclub.com.br/metallica/nothing-else-matters/imprimir.html 1/15
20/05/2019 Cifra Club - Metallica - Nothing Else Matters

Em
E|-------7--8--7h8/5--7--5/2--0-----------|
B|-------0--0---------0-------------------|
G|----0-----------------------------------|
D|----------------------------------------|
A|----------------------------------------|
E|-0--------------------------------------|

Parte 4 de 11

Am
E|-0--------2p0------------------0--0---0-|
B|-5-----5-------5------------5-----5---5-|
G|----5-------------5-----5---------5---5-|
D|----------------------------------------|
A|-0-------------------0------------0---2-|
E|----------------------------------------|

Parte 5 de 11

C
E|-0--------------3p0--------0------------|
B|-5--------5----------5-----5------------|
G|-5-----5-----5----------5--5------------|
D|----------------------------------------|
A|-3--3----------------------3------------|
E|----------------------------------------|

Parte 6 de 11

D9
E|-0---------------0h5--------------------|
B|-7--------7-----------7p0--0h5----------|
G|-7-----7-----7--------------------------|
D|----------------------------------------|
A|-5--5-----------------------------------|
E|----------------------------------------|

Parte 7 de 11

H.N. . . .
E|------------12--------------------------|
B|--------12------0-----------------------|
G|----12-------------0--------------------|
D|----------------------------------------|
A|----------------------------------------|
E|-0--------------------------------------|

https://www.cifraclub.com.br/metallica/nothing-else-matters/imprimir.html 2/15
20/05/2019 Cifra Club - Metallica - Nothing Else Matters

Parte 8 de 11

Em
E|-------------0--------------------------|
B|---------0------0-----------------------|
G|-----0--------------0-------------------|
D|----------------------------------------|
A|----------------------------------------|
E|-0--------------------------------------|

Parte 9 de 11

Em D C
E|----------------------------------------|
B|--------------8\--------7\-------5------|
G|-----------9---\--------7\-------5------|
D|--------9------\-----7---\-----5--------|
A|-----7---------\--5------\--3-----------|
E|-0--------------------------------------|

Parte 10 de 11

G B7
E|----------------------------------------|
B|------3--------4------------------------|
G|------4--------2------------------------|
D|---5--------4---------------------------|
A|---------2------------------------------|
E|-3--------------------------------------|

Parte 11 de 11

Em
E|-------------0--------------------------|
B|---------0------0-----------------------|
G|-----0--------------0-------------------|
D|----------------------------------------|
A|----------------------------------------|
E|-0--------------------------------------|

Em
E|-------------0--------------------------|
B|---------0------0-----------------------|
G|-----0--------------0-------------------|
D|----------------------------------------|
A|----------------------------------------|
E|-0--------------------------------------|

https://www.cifraclub.com.br/metallica/nothing-else-matters/imprimir.html 3/15
20/05/2019 Cifra Club - Metallica - Nothing Else Matters

(Guitarra)

Em D C
E|---------------7-----------5---------3---|
B|---------------8-----------7---------5---|
G|------------9-----------7---------5------|
D|---------9-------------------------------|
A|------7--------------5---------3---------|
E|-0---------------------------------------|

Em D C
E|---------------7-----------5---------3---|
B|---------------8-----------7---------5---|
G|------------9-----------7---------5------|
D|---------9-------------------------------|
A|------7--------------5---------3---------|
E|-0---------------------------------------|

Em D C
E|---------------7-------------------------|
B|------------8--------10----------8-------|
G|---------9--------------11---------9-----|
D|------9--------------------12--------10--|
A|-----------------------------------------|
E|-0---------------------------------------|

G B7 Em
E|-----------------------------------------|
B|-8---------7-----------------------------|
G|---7----------8--------------------------|
D|------9----------7----7\5~~--------------|
A|-----------------------------------------|
E|-----------------------------------------|

[Primeira Parte]

(Violão)

Parte 1 de 4

Em D D4 C9
E|-------3---0------2----3-------0---------|
B|-----0-------0-----------3-------3-------|
G|---0-----0-----0------------0------0-----|
D|------------------0--0-------------------|
A|-------------------------------3---------|
E|-0-----------------------------------3-2-|

https://www.cifraclub.com.br/metallica/nothing-else-matters/imprimir.html 4/15
20/05/2019 Cifra Club - Metallica - Nothing Else Matters
Parte 2 de 4

Em D C9
E|-------3---0------2----------------------|
B|-----0-------0---------3-----3----3------|
G|---0-----0-----0---------2p0----0--------|
D|------------------0--0-------------------|
A|-----------------------------3-----------|
E|-0----------------------------------3-2--|

Parte 3 de 4

Em D D4 C9
E|-------3----0-------2----3-----3---------|
B|-----0--------0------------3-----3-------|
G|---0------0-----0------------0-----0-----|
D|--------------------0--0-----------------|
A|-------------------------------3---------|
E|-0---------------------------------------|

Parte 4 de 4

G B7 Em
E|-----3-2---2-----0-----0-----------0-----|
B|-----3-0-----0-------0---0-------0---0---|
G|---0---2-------2---0-------0---0---------|
D|-----------------------------------------|
A|-------2-2-------------------------------|
E|-3---------------0-----------0--------3-2|

Parte 4 de 4 (Variação)

G B7 Em C A
E|-----3-2---2-----0-----0-------0---0-----|
B|-----3-0-----0-------0---0-----1---2-----|
G|---0---2-------2---0-------0---0---2-----|
D|-------------------------------2---2-----|
A|-------2-2---------------------3---0-----|
E|-3---------------0-----------------------|

Parte 4 de 4 (Variação)

https://www.cifraclub.com.br/metallica/nothing-else-matters/imprimir.html 5/15
20/05/2019 Cifra Club - Metallica - Nothing Else Matters
G B7
E|-----3-2---2-----------------------------|
B|-----3-0---0-----------------------------|
G|---0---2---2-----------------------------|
D|-----------------------------------------|
A|-------2-2-------------------------------|
E|-3---------------------------------------|

(Guitarra Base)

Em D D4 C9
E|-----------3-----2-----3------0---------|
B|--------0----------3-----3----3--3------|
G|-----0--------0------2-----2--0---------|
D|----------------------------------------|
A|------------------------------3---------|
E|-0----------------------------------3-2-|

Em D D4 C9
E|-----------3-----2-----3----------------|
B|--------0----------3-----3----3---------|
G|-----0--------0------2-----2--0--0------|
D|----------------------------------------|
A|------------------------------3---------|
E|-0----------------------------------3-2-|

Em D D4 C9
E|-----------3-----2-----3------3---------|
B|--------0----------3-----3----3--3------|
G|-----0--------0------2-----2--0-----0---|
D|----------------------------------------|
A|------------------------------3---------|
E|-0--------------------------------------|

G5 B7 Em
E|-----3--2--2h3-0-----0-----------0------|
B|-----3--0----------0---0-------0---0----|
G|---0----2--------0-------0---0----------|
D|----------------------------------------|
A|--------2-------------------------------|
E|-3-------------0-----------0---------3-2|

Em D D4 C9
So close no matter how far
Em D C9
Couldn't be much more from the heart
Em D D4 C9
Forever trusting who we are

https://www.cifraclub.com.br/metallica/nothing-else-matters/imprimir.html 6/15
20/05/2019 Cifra Club - Metallica - Nothing Else Matters
G5 B7 Em
And nothing else matters

(Riff 1)
Em D D4 C9
Never opened myself this way
Em D C9
Life is ours, we live it our way
Em D D4 C9
All these words I don't just say
G5 B7 Em
And nothing else matters

(Riff 2)
Em D D4 C9
Trust I seek and I find in you
Em D C9
Every day for us something new
Em D D4 C9
Open mind for a different view
G5 B7 Em C A
And nothing else matters

[Passagem]

C A
E|----------------------------------------|
B|-1-------2------------------------------|
G|-0-------2------------------------------|
D|-2-------2------------------------------|
A|-3-------0------------------------------|
E|----------------------------------------|

[Primeiro Refrão]

(Guitarra)

D5 C A
E|-----------------------------------------|
B|-3---------------1-------2---------------|
G|-2---------------0-------2---------------|
D|-0---------------2-------2---------------|
A|-----------------3-------0---------------|
E|-----------------------------------------|

https://www.cifraclub.com.br/metallica/nothing-else-matters/imprimir.html 7/15
20/05/2019 Cifra Club - Metallica - Nothing Else Matters
D5 C A
E|-----------------------------------------|
B|-3---------------1-------2---------------|
G|-2---------------0-------2---------------|
D|-0---------------2-------2---------------|
A|-----------------3-------0---------------|
E|-----------------------------------------|

P.M. . . . .
E|-----------------------------------------|
B|-----------------------------------------|
G|---------------------------------7/9~~---|
D|-------5~~----------7~~-------7----------|
A|----7------------7---------5-------------|
E|-8------------8--------------------------|

D D4 D D9 C A
Never ca___red for what they do
D D4 D D9 C A
Never ca___red for what they know
D Em
But I know

[Segunda Parte]

Em D D4 C9
So close no matter how far
Em D C9
Couldn't be much more from the heart
Em D D4 C9
Forever trusting who we are
G5 B7 Em C A
And nothing else matters

[Segundo Refrão]

D D4 D D9 C A
Never ca___red for what they do
D D4 D D9 C A
Never ca___red for what they know
D Em
But I know

[Primeiro Solo]

(Violão)

https://www.cifraclub.com.br/metallica/nothing-else-matters/imprimir.html 8/15
Parte 1
20/05/2019 de 4 Cifra Club - Metallica - Nothing Else Matters

E|-12------14------15------17------------------------|
B|----12------12------12------12---------------------|
G|---------------------------------------------------|
D|---------------------------------------------------|
A|---------------------------------------------------|
E|-0-----0-0-----0-0-----0-0-----0-------------------|

Parte 2 de 4

E|-8------8-------------8----------------------------|
B|---5------5---------5---5--------------------------|
G|-----5------5-----5-------5\-----------------------|
D|---------------------------------------------------|
A|-0-------------0-----------------------------------|
E|---------------------------------------------------|

Parte 3 de 4
C D9
E|-0---------0-----0--------0------------------------|
B|---1---------1-----3--------3----------------------|
G|-----0---------------2-----------------------------|
D|-----------------0-----0---------------------------|
A|-3------3------------------------------------------|
E|---------------------------------------------------|

Parte 4 de 4

Em
E|-0h7-------7p0-----------0-------------------------|
B|------0--------0-------0---0-----------------------|
G|--------0--------0---0-------0---------------------|
D|---------------------------------------------------|
A|---------------------------------------------------|
E|-0-----------------0-------------------------------|

(Guitarra)

E|-15----------17----------19----------20------------|
B|------17----------17----------17----------17-------|
G|---------------------------------------------------|
D|---------------------------------------------------|
A|---------------------------------------------------|
E|---------------------------------------------------|

https://www.cifraclub.com.br/metallica/nothing-else-matters/imprimir.html 9/15
E|-12------------------------------------------------|
20/05/2019 Cifra Club - Metallica - Nothing Else Matters
B|------13~------------------------------------------|
G|---------------------------------------------------|
D|---------------------------------------------------|
A|---------------------------------------------------|
E|---------------------------------------------------|

E|-/12-----------/14-------------------12----12------|
B|------13------------15----------12-------------12--|
G|----------12------------14-------------------------|
D|---------------------------------------------------|
A|---------------------------------------------------|
E|---------------------------------------------------|

E|-15----------17----------19----------20------------|
B|------17----------17----------17----------17-------|
G|---------------------------------------------------|
D|---------------------------------------------------|
A|---------------------------------------------------|
E|---------------------------------------------------|

E|-12------------------------------------------------|
B|------13~------------------------------------------|
G|---------------------------------------------------|
D|---------------------------------------------------|
A|---------------------------------------------------|
E|---------------------------------------------------|

E|-/12-----------------------------------------------|
B|------13-------------------------------------------|
G|----------12-------12---12h14~~--12h14-14b16r14-12~|
D|----------------------x----------------------------|
A|---------------------------------------------------|
E|---------------------------------------------------|

E|---------------------------------------------------|
B|-12------12------12--------------------------------|
G|-14b16---14b16---14b16r14h12---------------12------|
D|-----------------------------14~-12-12h14------14~~|
A|---------------------------------------------------|
E|---------------------------------------------------|

(Riff 1)
Em D D4 C9
Never opened myself this way
Em D C9
Life is ours, we live it our way

https://www.cifraclub.com.br/metallica/nothing-else-matters/imprimir.html 10/15
Em D D4 C9
20/05/2019 Cifra Club - Metallica - Nothing Else Matters
All these words I don't just say
G5 B7 Em
And nothing else matters

(Riff 2)
Em D D4 C9
Trust I seek and I find in you
Em D C9
Every day for us something new
Em D D4 C9
Open mind for a different view
G5 B7 Em C A
And nothing else matters

[Terceiro Refrão]

D D4 D D9 C A
Never car___ed for what they say
D D4 D D9 C A
Never ca___red for games they play
D D4 D D9 C A
Never ca___red for what they do
D D4 D D9 C A
Never ca___red for what they know
D Em
And I know, Yeah!

[Segundo Solo] E5 D5 C5 ( F#5 G#5 F#5 )


E5 D5 C5 ( F#5 G#5 F#5 )
E5 D5 C5 ( F#5 G#5 F#5 )
G5 B5 E5

E|---------------------------------------------------|
B|-15------15----------------------------------------|
G|-14b16~--14b16r14--12~~--12p11--12p11--9--11-------|
D|---------------------------------------------12/14~|
A|---------------------------------------------------|
E|---------------------------------------------------|

E|-----------------12--------12----------------------|
B|------------------------------15p12----12----------|
G|-12-14-12-14b16------14b16----------15----15-14----|
D|---------------------------------------------------|
A|---------------------------------------------------|
E|---------------------------------------------------|

https://www.cifraclub.com.br/metallica/nothing-else-matters/imprimir.html 11/15
E|---------------------------------------------------|
20/05/2019 Cifra Club - Metallica - Nothing Else Matters
B|--------------14---14-13-12~~----------------------|
G|-14h15p14p12--14---14-13-12~~----------------------|
D|---------------------------------------------------|
A|---------------------------------------------------|
E|---------------------------------------------------|

E|-/15--14------15--14--15/17--15--14h15p14-12-------|
B|----------12----------------------------------12---|
G|---------------------------------------------------|
D|---------------------------------------------------|
A|---------------------------------------------------|
E|---------------------------------------------------|

E|-15-14---------------------------------------------|
B|-------12~~-------------15-------------------------|
G|---------------12-14-12-14b16r14p12----12-14b16----|
D|------------------------------------14-------------|
A|---------------------------------------------------|
E|---------------------------------------------------|

E|----12---------------------------------------------
B|-12----15--15b17r15p12--15b17~~r-------------------|
G|---------------------------------------------------|
D|---------------------------------------------------|
A|---------------------------------------------------|
E|---------------------------------------------------|

E|---------------------------------------------------|
B|-12h15p12------7b¼r7--5h7p5~~----------------------|
G|---------------------------------------------------|
D|---------------------------------------------------|
A|---------------------------------------------------|
E|---------------------------------------------------|

E|---------------------------------------------------|
B|--7---8----5~~-------------------------------------|
G|---------------------------------------------------|
D|---------------------------------------------------|
A|---------------------------------------------------|
E|---------------------------------------------------|

So close no matter how far

https://www.cifraclub.com.br/metallica/nothing-else-matters/imprimir.html 12/15
20/05/2019 Cifra Club - Metallica - Nothing Else Matters

E|---------------------------------------------------|
B|-7----8\3~~----------------------------------------|
G|---------------------------------------------------|
D|---------------------------------------------------|
A|---------------------------------------------------|
E|---------------------------------------------------|

Couldn't be much more from the heart

E|---------------------------------------------------|
B|-7--8---12~~~~~------------------------------------|
G|---------------------------------------------------|
D|---------------------------------------------------|
A|---------------------------------------------------|
E|---------------------------------------------------|

Forever trusting who we are


And nothing else matters

[Parte Final]

Em
E|-0-----------0---------------------------|
B|---------0------0------------------------|
G|-----0--------------0--------------------|
D|-----------------------------------------|
A|-----------------------------------------|
E|-0---------------------------------------|

E|----------0------7--7--------7p0---------|
B|-------0-----0---------0-----0----0------|
G|----0---------------------0--0------0----|
D|-----------------------------------------|
A|-----------------------------------------|
E|--0-----------------0--------------------|

E|-0-----7--8--7h8/5--7--5/2--0------------|
B|-------0--0---------0--------------------|
G|----0------------------------------------|
D|-----------------------------------------|
A|-----------------------------------------|
E|-0---------------------------------------|

[Riff 1]

(Guitarra 1)

https://www.cifraclub.com.br/metallica/nothing-else-matters/imprimir.html 13/15
20/05/2019 Cifra Club - Metallica - Nothing Else Matters

Em D D4 C9 Em D D4 C9
E|---------------------------------------------------|
B|-8~------10--12--8~---------------10--12--13~------|
G|---------------------------------------------------|
D|---------------------------------------------------|
A|---------------------------------------------------|
E|---------------------------------------------------|

Em D D4 C5(9) G B7 Em
E|---------------------------------------------------|
B|-12~-----10--12--8~---------------7~-----5~--------|
G|---------------------------------------------------|
D|---------------------------------------------------|
A|---------------------------------------------------|
E|---------------------------------------------------|

(Guitarra 2)

Em D D4 C9 Em D D4 C9
E|---------------------------------------------------|
B|---------------------------------------------------|
G|-9~------11--12--9~---------------11--12--12~------|
D|---------------------------------------------------|
A|---------------------------------------------------|
E|---------------------------------------------------|

Em D D4 C5(9) G B7 Em
E|---------------------------------------------------|
B|---------------------------------------------------|
G|-12~-----11--12--9~---------------9~---------------|
D|---------------------------------------------------|
A|---------------------------------------------------|
E|---------------------------------------------------|

[Riff 2]

(Guitarra Solo)

Em D D4 C9
E|---------------------------------------------------|
B|---------------------------------------------------|
G|---------------------------------------------------|
D|---------------------------------------------------|
A|--------10---10/12--12\10--9--10--7~---------------|
E|-0--------------------------------------------3-2--|

https://www.cifraclub.com.br/metallica/nothing-else-matters/imprimir.html 14/15
20/05/2019 Cifra Club - Metallica - Nothing Else Matters

Em D D4 C9
E|---------------------------------------------------|
B|---------------------------------------------------|
G|---------------------------------------------------|
D|---------------------------------------------------|
A|--------10---10/12--12\10--9~--5~--5~--------------|
E|-0---------------------------------------------3-2-|

Em D D4 C5(9)
E|---------------------------------------------------|
B|---------------------------------------------------|
G|---------------------------------------------------|
D|---------------------------------------------------|
A|--------10---10/12--12\10--9--10--7~---------------|
E|-0---------------------------------------------3---|

G5 B7 Em
E|---------------------------------------------------|
B|---------------------------------------------------|
G|---------------------------------------------------|
D|-------------4-----------2-------------------------|
A|-----2-3-2---2---2-3-2---2-------------------------|
E|-3-----------------------0-------------------------|

A Am B5 B7 C C5
1 1 1
1 2 3 2 3 1 2 3 4 2
3 1
3 4
3 4

C5(9) C9 D D4 D5 D9
5ª 1
1 2 1 1
3 2 3 3 4 2

3 4 3 4

E5 Em F#5 G G#5 G5
4ª 1
1 2 1 2 1 1
2 3 3 4 1
3 4
3 4

https://www.cifraclub.com.br/metallica/nothing-else-matters/imprimir.html 15/15