Você está na página 1de 2

S�rgio Sampaio - Eu Quero � Botar Meu Bloco Na Rua

Tom: G
Intro:

E|----------12--10--7--10--7--10--7--5--7--5--3-----------------------------------|
B|--------------------------------------------------------------------------------|
G|--7/9~--------------------------------------------------------------------------|
D|--------------------------------------------------------------------------------|
A|--------------------------------------------------------------------------------|
E|--------------------------------------------------------------------------------|

E|------5--3--0--3--5--3--0--3--5--10--7--5h7--5h7--10--7--5h7--10--7--
5h7--------------|
B|---------------------------------------------------------------------------------
-----|
G|---------------------------------------------------------------------------------
-----|
D|---------------------------------------------------------------------------------
-----|
A|---------------------------------------------------------------------------------
-----|
E|---------------------------------------------------------------------------------
-----|

E|------3--3h5--5/7--7--5--7--5--7--5--3--5p3--0--
3p0-----------------------------------|
B|-----------------------------------------------------3--
3/5---------------------------|
G|---------------------------------------------------------------------------------
-----|
D|---------------------------------------------------------------------------------
-----|
A|---------------------------------------------------------------------------------
-----|
E|---------------------------------------------------------------------------------
-----|

E|----------------------------------------------------2--2--x--2--x--2--
x------------------------|
B|-----5--8--10--8--5--5h7--7p5--0--5h7--7--7p5--2----0--0--x--0--x--0--
x-----------------------|
G|----------------------------------------------------2--2--x--2--x--2--
x------------------------|
D|----------------------------------------------------1--1--x--1--x--1--
x------------------------|
A|----------------------------------------------------2--2--x--2--x--2--
x------------------------|
E|----------------------------------------------------0--0--x--0--x--0--
x------------------------|

B7 Em D
H� quem diga que eu dormi de touca
C B7
Que eu perdi a boca, que eu fugi da briga
Am Em
Que eu ca� do galho e que n�o vi sa�da
F# B7
Que eu morri de medo quando o pau quebrou

Em D
H� quem diga que eu n�o sei de nada
C B7
Que eu n�o sou de nada e n�o pe�o desculpas
Am Em
Que eu n�o tenho culpa, mas que eu dei bobeira
F# B7
E que Durango Kid quase me pegou

Em D
Eu quero � botar meu bloco na rua
C B7
Brincar, botar pra gemer
Em D
Eu quero � botar meu bloco na rua
C B7
Gingar, pra dar e vender

Em D
Eu, por mim, queria isso e aquilo
C B7
Um quilo mais daquilo, um grilo menos disso
Am Em7
� disso que eu preciso ou n�o � nada disso
F# B7
Eu quero todo mundo nesse carnaval...

Em D
Eu quero � botar meu bloco na rua
C B7
Brincar, botar pra gemer
Em D
Eu quero � botar meu bloco na rua
C B7
Gingar, pra dar e vender