Você está na página 1de 2

05 - COURO DE BOI 

Palmeira e Biá 
Palmeira / Teddy Vieira
Tom: E
Ritmo: Toada ( p i t t )

Conheço um velho ditado, que é do tempo dos agáis.Diz que um pai trata
dez filhos, dez filhos não trata um pai.Sentindo o peso dos anos sem poder
mais trabalhar,o velho, peão estradeiro, com seu filho foi morar.O rapaz era
casado e a mulher deu de implicar."Você manda o velho embora, se não quiser
que eu vá".E o rapaz, de coração duro, com o velhinho foi falar:
E % B7 % % % E %
Para o se​nho​r se mu​dar​, ​meu​ pai eu ​vim​ lhe pe​dir
E % B7 % % % E E7
Ho​je aqui ​da​ minha ​ca​sa ​o​ senhor ​tem​ que sa​ir
A % % % E % %​ ​ %
Le​ve este ​cou​ro de ​boi​ que ​eu​ aca​bei​ de cur​tir
B7 % % % % % E E↓
Pra​ lhe ser​vir​ de co​ber​t​a​ ​a​onde o ​sen​hor dor​mir

Arranjo

E % B7 % % % E %
O​ pobre ​ve​lho, ca​la​do, ​pe​gou o ​cou​ro e sa​iu
E % B7 % % % E E7
Seu​ neto ​de​ oito ​a​n​os​ que ​a​quela ​ce​na assis​tiu
A % % % E % % %
Co​rreu at​rás​ do a​vô​, ​seu​ pale​tó​ sacu​diu
B7 % % % % % E E↓
Me​tade ​da​quele ​co​u​ro​, ​cho​rando ​e​le pe​diu

Arranjo

E % B7 % % % E %
O​ velhi​nho​, como​vi​do, ​pra​ não ver o ​ne​to cho​ran​do
E % B7 % % % E E7
Pa​rtiu o ​cou​ro no ​me​io ​e​ pro ne​ti​nho foi ​dan​do
A % % % E % % %
O​ meni​no​ chegou em ​casa​, ​seu​ pai foi ​lhe​ pergun​tan​do.
B7 % % % % % E E↓
Pra​ quê vo​cê ​quer este ​cou​ro ​que​ seu a​vô ​ia le​van​do

Arranjo

E % B7 % % % E %
Di​sse o me​ni​no ao ​pai​: ​um​ dia ​vou​ me ca​sar
E % B7 % % % E E7
O​ senhor ​vai​ ficar ​ve​lh​o​ ​e​ comi​go​ vem mo​rar
A % % % E % % %
Po​de ser ​que​ acon​te​ç​a​ ​de​ nós não ​s​e combi​nar
B7 % % % % % E E↓
Es​sa me​ta​de do ​co​u​ro​ ​vou​ dar pro ​se​nhor le​var

www.fredmaciel.com.br
05 - COURO DE BOI 
Palmeira e Biá 
Palmeira / Teddy Vieira

Arranjo - Nível 01

|--------------------------------------------------------------------------|
|--------------------------------------------------------------------------|
|----------0--1--1--1--0-----------1--0--0--0------------------------------|
|---0--2------------------2--0--2--------------2--0-----0--4--2--2--2--0---|
|----------------------------------------------------4---------------------|

|--------------------------------------------------------------------------|
|--------------------------------------------------------------------------|
|-------------------i--t--t--p--i--t--t------------------------------------|
|------------2--0----------------------------------------------------------|
|---4--2--4----------------------------------------------------------------|

DOMINAR

Após você entender a música lendo a cifra e praticar muitas vezes (acima de 30
vezes) neste casa lendo a cifra com a letra da música você irá entrar para a
parte de dominar que é tocar lendo apenas a sequência abaixo e se possível
acompanhando o playback que você verá no final da terceira aula (quinta-feira)
dia 11-05-2017.

2X 4X 4X 4X 1X 1X
E B7 E B7 E E7

1X 4X 6X 1X P
A E B7 E E↓

Para dominar um dos segredos é você não olhar a letra e memorizar a sequência
de acordes da música. Toque a música lendo apenas os acordes acima.

www.fredmaciel.com.br