Você está na página 1de 6

O violão como instrumento melódico

Escalas e arpejos usados para improvisar

1) Escala pentatônica

Pode ser usada nos ii, iii e vi graus do campo harmônico maior

Por exemplo, se estamos em Dó Maior, podemos utilizar a pentatônica dos graus


ii, iii e vi, respectivamente: ré menor, mi menor e lá menor.

Se estamos em Sol Maior, utilizamos penta de Mi Menor (vi grau).

Se estamos em Ré Maior, utilizamos penta de Si Menor (vi grau).

Obs: utilizamos mais o sexto grau.

A pentatônica também pode ser utilizada em tons menores, então será


utilizada a pentatônica homônima. Por exemplo: Dó Menor = Penta de Dó Menor,
Mi Menor = Penta de Mi Menor.

Composta por 5 notas: T – 3m – 4J – 5J – 7m

Pode ser acrescentada a Blue Note (5b), o que cria um trítono em relação a
primeira nota da escala.

Formatos

Com a nota fundamental na sexta corda – Exemplo em Lá Menor

e----------------------------------------------------------------------5----8-------------------------
b------------------------------------------------------------5---8------------------------------------
g---------------------------------------------5---7---8----------------------------------------------
d----------------------------------5----7-------------------------------------------------------------
a-------------------5---6---7------------------------------------------------------------------------
e-----5-----8-----------------------------------------------------------------------------------------

Com a nota fundamental na quinta corda - Exemplo em Lá Menor


e----------------------------------------------0---3--------------------------------------------------
b---------------------------------1---3--4-----------------------------------------------------------
g-----------------------0---2-------------------------------------------------------------------------
d-------------0-1-2----------------------------------------------------------------------------------
a----0---3--------------------------------------------------------------------------------------------
e------------------------------------------------------------------------------------------------------
2) Arpejos de acordes I7M, V7 e ii (ou iii ou vi)

Dm7 – ii
Composto pelas notas - Ré Fá Lá Dó

Formato 1
e------------------------------------5(3)-------------------------------------------------------------
b--------------------------3(1)---6(4)--------------------------------------------------------------
g----------------2(1)---5(4)------------------------------------------------------------------------
d----------3(2)--------------------------------------------------------------------------------------
a-----5(4)--------------------------------------------------------------------------------------------
e------------------------------------------------------------------------------------------------------

Formato 2
e---------------------------------5---8---------------------------------------------------------------
b----------------------------6------------------------------------------------------------------------
g-------------------5--7------------------------------------------------------------------------------
d-------------7---------------------------------------------------------------------------------------
a----5---8--------------------------------------------------------------------------------------------
e------------------------------------------------------------------------------------------------------

G7 – V7
Composto pelas notas - Sol Si Ré Fá

Formato 1
e-------------------------------------------------------------3(1)—7(4)---------------------------
b-------------------------------------------3(1)—6(4)---------------------------------------------
g----------------------------------------4(2)---------------------------------------------------------
d-----------------------3(1)---5(3)---------------------------------------------------------------
a-------2(1)---5(4)---------------------------------------------------------------------------------
e---3(2)----------------------------------------------------------------------------------------------

Formato 2
e----------------------------------1-------------------------------------------------------------------
b-------------------------0---3-----------------------------------------------------------------------
g---------------------0--------------------------------------------------------------------------------
d------------0--3-------------------------------------------------------------------------------------
a--------2---------------------------------------------------------------------------------------------
e----3-------------------------------------------------------------------------------------------------
C7M
Composto pelas notas - Dó Mi Sol Si

Formato 1
e------------------------------3---7------------------------------------------------------------------
b-------------------------5---------------------------------------------------------------------------
g----------------4--5---------------------------------------------------------------------------------
d-------2---5-----------------------------------------------------------------------------------------
a---3--------------------------------------------------------------------------------------------------
e------------------------------------------------------------------------------------------------------

A7 – V7/ii
Composto pelas notas Lá Dó# Mi Sol

Formato 1
e---------------------------------------5----9--------------------------------------------------------
b-----------------------------5---8-------------------------------------------------------------------
g------------------------6-----------------------------------------------------------------------------
d-----------------5--7-------------------------------------------------------------------------------
a--------4---7----------------------------------------------------------------------------------------
e----5-------------------------------------------------------------------------------------------------

Formato 2
e-----------------------------------3----5------------------------------------------------------------
b-------------------------2----5----------------------------------------------------------------------
g---------------------2--------------------------------------------------------------------------------
d-----------2---5-------------------------------------------------------------------------------------
a-------4----------------------------------------------------------------------------------------------
e---5--------------------------------------------------------------------------------------------------

3) Progressão ii V I V7/ii

Estudamos a progressão ii V I V7/ii com estes formatos de acorde

Dm7 G7 C7M A7
e------------------------------------------------------------------------------------------------------
b--------6-----------------3------------------5---------------5-------------------------------------
g--------5-----------------4------------------4---------------6------------------------------------
d--------3-----------------3------------------5---------------5-------------------------------------
a--------5-------------------------------------3----------------------------------------------------
e---------------------------3-----------------------------------5-------------------------------------
Am D7 (9) G7M E7 (9)
e------------------------------------------------------------------------------------------------------
b--------5-----------------5------------------3---------------7-------------------------------------
g--------5-----------------5------------------4---------------7------------------------------------
d--------5-----------------4------------------4---------------6-------------------------------------
a---------------------------5----------------------------------7------------------------------------
e--------5-------------------------------------3--------------------------------------------------

Utilizando o Ciclo de Quintas na progressão ii V I V7/ii

Dm7 G7 C7M A7

Am7 D7 G7M E7

Em7 A7 D7M B7

Bm7 E7 A7M F#7

F#m7 B7 E7M C#7


4) Como criar melodias harmônicas

4 notas por acorde + próxima nota sempre a mais perto

Exemplo ii V7 I V7/ii

e-------------------------------------------------3(1)----7(4)—3(1)-----------------------------
b---------------------------------3(1)---6(4)-----------------------------5(4)--------------------
g------------------2(1)---5(4)-----------------------------------------------------5(3)—4(2)---
d----------3(2)--------------------------------------------------------------------------------------
a---5(4)----------------------------------------------------------------------------------------------
e------------------------------------------------------------------------------------------------------

e------------------------------3(2)----5(4)---------------------------------------------------------
b-------------2(1)----5(4)------------------------------------------------------------------------
g----2(1)-------------------------------------------------------------------------------------------
d------------------------------------------------------------------------------------------------------
a------------------------------------------------------------------------------------------------------
e---------------------------------------------------------------------------------------------------

Shape de escala maior

- Esses formatos compreendem apenas uma oitava, ou seja, uma escala de Tônica
a 8J. Eles podem e devem ser expandidos, cobrindo duas ou três oitavas,
repetindo as mesmas notas, porém em outras alturas.

Dó Maior (fundamental na quinta corda)

Dó – Ré – Mi – Fá – Sol – Lá – Si - Dó
T 2M 3M 4J 5J 6M 7M 8J

e-----------------------------------------------------------------------------------------------------
b-----------------------------------------------------------------------------------------------------
g-------------------------------------------------------2(1)---4(3)---5(4)------------------------
d-------------------------2(1)----3(2)----5(4)---------------------------------------------------
a----3(2)----5(4)-----------------------------------------------------------------------------------
e---------------------------------------------------------------------------------------------------
Sol Maior (fundamental na sexta corda)

Sol – Lá – Si – Dó – Ré – Mi – Fá# - Sol


T 2M 3M 4J 5J 6M 7M 8J

e-----------------------------------------------------------------------------------------------------
b-----------------------------------------------------------------------------------------------------
g----------------------------------------------------------------------------------------------------
d-----------------------------------------------------2(1)---4(3)---5(4)--------------------------
a------------------------ 2(1)----3(2)----5(4)-----------------------------------------------------
e----3(2)----5(4)-----------------------------------------------------------------------------------

Sistema CAGED

Blues

- Sempre vai ter 12 compassos.


- Utiliza o I, IV e V graus, porém, todos com Sétima Menor.

Blues em E
E7 | | |
A7 | |E7 |
B7 |A7 |E7 |B7

Blues em G
G7 | | |
C7 | |G7 |
D7 |C7 |G7 |D7