Você está na página 1de 3

A promessa

(Humberto Gessinger / Paulo Casarin)

Introdu��o: Am F G

Am G F
N�o vejo nada (o que eu vejo n�o me agrada)

Am G F
N�o ou�o nada (o que eu ou�o n�o diz nada)

Am G F
Perdi a conta das p�rolas e porcos

Am G F
Que eu cruzei pela estrada

Dm F C G/B Am G
Estou ligado a cabo a tudo que acaba de acontecer

Am G F
Propaganda � a arma do neg�cio

Am G F
No nosso peito bate um alvo muito f�cil

Am G F
Mira a laser... miragem de consumo

Am G F
Latas e litros de paz teleguiada

Dm F G
Estou ligado a cabo a tudo que eles tem pra oferecer

C G
O c�u e s� uma promessa

F Bb G/B C
Eu tenho pressa, vamos nessa dire...��o

C G
Atr�s de um sol que nos aque�a

Dm Bb G/B
Minha cabe�a n�o aguenta mais...

C G
O c�u e s� uma promessa

F Bb G/B C
Eu tenho pressa, vamos nessa dire...��o

C G
Atr�s de um sol que nos aque�a

Dm Bb E7
Minha cabe�a n�o aguenta mais...
(solo: Am F G (4x) - Am Bm C F G Am G)
Engenheiros do Hawaii - A Promessa
tab feita por Rafael Nobre Rocha (rnobre@rnobre.com) usando o Bucket o'Tab 2.5

intro
E--------------------------|--------------------------|-------------------------
B--------------------------|--------------------------|-------------------------
G---16^-16-14-16-16-16^-16-|-16^-16-14-12-14-14/16-14-|-------------------------
D--------------------------|--------------------------|-------------------------
A--------------------------|--------------------------|-------------------------
E--------------------------|--------------------------|-------------------------

Solo
E-------------------------------------------------------------------------------
B-------------------------------------------------------------------------------
G--------------------/9-9-5-4-5-7-4-2--/9-7-9-12-9-12-14-12-14-16-14-16-17------
D-------------------------------------------------------------------------------
A-------------------------------------------------------------------------------
E-------------------------------------------------------------------------------

E---------------------------------------------------------------------------|---
B-----------------------------------------------------17-15-13-12--/17-15---|---
G---~~~~~~/17-16-12-----------------12----12-14-12-14-----------------------|---
D-------------------14-14^----14-15----15-----------------------------------|---
A--------------------------15-----------------------------------------------|---
E---------------------------------------------------------------------------|---

solinho no final da musica


E---------19^-19-15-17---15^-15-12-13~~~----------------------------------------
B-------------------------------------------------------------------------------
G-------------------------------------------------------------------------------
D-------------------------------------------------------------------------------
A-------------------------------------------------------------------------------
E-------------------------------------------------------------------------------

eh +- isso a musica... a base eh facil, soh power chord vcs acham por aih...
qualquer duvida e talz ou kem kiser trocar tabs... rnobre@rnobre.com

Am G F
Tu me encontrastes de m�os vazias

Am G F
Eu te encontrei na contram�o

Am G F
Na hora exata, na encruzilhada

Am G F
Na highway da superinforma��o

Dm F G
Estamos t�o ligados j� n�o temos o que temer