Você está na página 1de 3

Musica: ARAME FARPADO

(Humberto Gessinger)
cifrada por murilocitelli@bol.com.br
--------------------------------------------------------------------------------

Introdu��o:

e|------------------------------------------------------------------------
B|---5-------6-------5-------6-------5-------6-------5-------6-------5----
G|-5---5---5---5---5---5---5---5---5---5---5---5---5---5---5---5---5---5--
D|-------7-------7-------7-------7-------7-------7-------7-------7--------
A|------------------------------------------------------------------------
E|------------------------------------------------------------------------

Riff-Intro-1
e|------------------------------------
B|------------------------------------
G|--2-2-2-2---------------------------
D|--2-2-2-2--3--3-3-3----------------- 2x
A|--0-0-3-0--3--3-3-3-----------------
E|-----------1--1-1-1-----------------

Riff-Intro-2
e|------------------------------------
B|------------------------------------
G|--2-2-2-2--x-2-2-2------------------
D|--2-2-2-2--x-2-2-2--3--3-3-3--------
A|--0-0-3-0--x-0-3-0--3--3-3-3--------
E|--------------------1--1-1-1--------

Riff-1:

e|------------------------------------
B|------------------------------------
G|--2-2-2-2---------------------------
D|--2-2-2-2--3--3-3-3-----------------
A|--0-0-3-0--3--3-3-3-----------------
E|-----------1--1-1-1-----------------

Riff-2:

e|------------------------------------
B|------------------------------------
G|--2-2-2-2---------------------------
D|--2-2-2-2--5--5-5-3-----------------
A|--0-0-3-0--5--5-5-5-----------------
E|-----------3--3-3-3-----------------

Riff-3:

e|------------------------------------
B|------------------------------------
G|------------------------------------
D|--3-3-3-3--2--2-2-2-----------------
A|--3-3-3-3--2--2-2-2-----------------
E|--1-1-1-1--0--0-0-0-----------------

Riff-4:
e|------------------------------------
B|------------------------------------
G|------------------------------------
D|--3-3-3-3--2-3-2-3------------------
A|--3-3-3-3--2-3-2-3------------------
E|--1-1-1-1--0-1-0-1------------------

Riff-1 Riff-1
seria engra�ado se n�o fosse triste
Riff-2 Riff-3
acesso negado, a gente n�o existe
Riff-1 Riff-1
arame farpado, sil�ncio de chumbo
Riff-2 Riff-3
seria absurdo se n�o fosse lei

Riff-1
a serpente troca de pele
Riff-1
a gente n�o esquece
Riff-2 Riff-3
o avi�o reabastece sem deixar de voar

Guitarra 2 na parte acima:

e|----------------------------------------
B|----5-------6-------7-------6-----------
G|--5---5---5---5---5---5---5---5-4-------
D|7-------7-------7-------7---------------
A|----------------------------------------
E|----------------------------------------

F G G/B Am G
n�o sofro mais, agora eu sei
F G G/B Am G
o que nos faz sobreviver
F G G/B Am G
n�o sofro mais, agora eu sei
F G Introdu��o (Riff-Intro-2 / Riff-Intro-1)
o que nos fez sobreviver

Riff-1 Riff-1
seria ru�do se n�o fosse um sinal
Riff-2 Riff-3
s� para iniciados, transe tribal

Riff-1 Riff-1
seriam ru�nas, mas a gente n�o esquece
Riff-2 Riff-4
o avi�o reabastece em pleno ar

Guitarra 2 na parte acima:

e|----------------------------------------
B|----5-------6-------7-------6-----------
G|--5---5---5---5---5---5---5---5-4-------
D|7-------7-------7-------7---------------
A|----------------------------------------
E|----------------------------------------
Solo (Guitarra):

e|->12~-------------------10~---8~~~------
B|--------13~---12~-----------------------
G|-------------------9~-------------------
D|---------------------------------------- 2x
A|----------------------------------------
E|----------------------------------------

F G G/B Am G
n�o sofro mais, agora eu sei
F G G/B Am G
o que nos faz sobreviver
F G G/B Am G
n�o sofro mais, agora eu sei
F G Am F G
o que nos fez .....sobreviver

Riff-Intro-2

Murilo Citelli