Você está na página 1de 2

Saber Voar - Chimarruts Tom: E (intro) ( E B C#m7 A B ) Introdução na Flauta

E |--------------------/7---7-5--------------------------------|
B |-----9/7-5-7--5~7-5----9----~7~5-/9-5----9/7-5-7--5-7-/9-5--|

Introdução no violão(junto com a Flauta)


E C#m7 A B
E |----------------7------------------|
B |-----9/7-5-7~-5---~5------2--4-----|
G |--1----------------4---4--2--4-----|
D |--2----------------6-6----2--4-----|
A |--2----------------4------0--2-----|
E |--0--------------------------------| (Bend na guitarra) B |--12b14b12b14---

(verso)
E B C#m7 A B E B C#m7 A B
Falar que bom quando é pra ti | Sonhar faz a vida mais feliz
E B C#m7 A B E B C#m7 A B
E as estrelas que não posso tocar |Estão tão perto estão no teu olhar
E B C#m7 A B E B C#m7 A B
cantar que bom quando é pra ti |Ver teu sorriso também me faz sorrir
E B C#m7 A B
Ó estrela não deixe de brilhar
E B C#m7 A B
Mesmo que tão longe sei que ela está lá

(ponte)
C#m7 G#m7
E mesmo que eu não te veja
F#m7 A B
Posso sentir quando pensa em mim
C#m7 G#m7
É como não ver o sol
F#m7 A B
Mas ter certeza que está lá
C#m7 G#m7
Transformando a noite em dia
C#m7 G#m7
Tristezas em alegria
F#m7
E aquilo que era vazio
A B
Foi embora pra não voltar mais (refrão)
E B C#m7
Queria saber voar
A B
Pra lá do alto poder ver você
E B C#m7
Te ver sorrir te ver sonhar
A B
Coisas lindas quero te dizer
E B C#m7
E se um anjo encontrar
A B
Eu vou pedir pra ele te proteger
E B C#m7
Ó estrela que me faz enxergar
A B
Que a vida é linda de viver (solo) Flauta
E |-------------------------7--------------------
B |----------9/7----9-999-9--------------9/7-----
G |--9-999-9-----9---------------9-999-9-----9---

Uma guitarra faz isso no começo do solo um pouco depois da Flauta


B |--12/14--12*-12-

*Outra Guitarra entra solando por traz


E |--------------------------------------------------------------------9---|
B |--/12-9-------------------------------------------------------------x---|
G |--------11-9-------11-11b-11b-9------9-11-11b-11-9-----------11-9---x---|
D |-------------9/11-----------------11---------------11p9-9/11--------x---|
(ponte) (refrão) Flauta
E |-----------------/7---7-5-------------------------------|
B |--9/7-5-7--5~7-5----9----~7~5-/9-5--9/7-5-7--5-7-/9-5---|
G |------------------------------------------------------4-|

Guitarra
E |-----------------/7-------------------------|
B |--9/7-5-7--5~7-5----/9--9/7-5-7--5-7-/9-5---|
G |------------------------------------------4-|

B |--12b14b12--
Composição de Nê / Sander Fróis