Você está na página 1de 5

Como Tudo Deve Ser

Charlie Brown Jr.


Composição: Champignon

Versos:

G|--------13----11h13--18---16---------------11-9h11-16---14--13-14-13--|
D|-----11------------------------18-16-14-------------------------------|
A|--12-------12---------------------------------------------------------|
E|---------------------14-14--14-----------9---9-----12-12--12----------|

Refrões:

G|--13-13--11h13-13-13-13-13-14-14-14-16--|
D|----------------------------------------|
A|--9----9-9-----9--12-12-12-12-12-12-12--|
E|----------------------------------------|

Base do Solo:

G|--------13----11h13--18---16---------------11-9h11-16---14--13-14-13--|
D|-----11------------------------18-16-14-------------------------------|
A|--12-------12---------------------------------------------------------|
E|---------------------14-14--14-----------9---9-----12-12--12----------|

Final:

G|--13-13--11h13-13-13-13-13-14-14-14-16--|
D|----------------------------------------|
A|--9----9-9-----9--12-12-12-12-12-12-12--|
E|----------------------------------------|(7X)

G|--13-13--11h13-13-13-13-13-14-14-14-16-------13--|
D|------------------------------------------11-----|
A|--9----9-9-----9--12-12-12-12-12-12-12--9--------|
E|-------------------------------------------------|

Letra

Um belo sonho veio então despertar minha vontade

Tudo vale a pena pra te reencontrar

Me livrei de tudo aquilo e consegui mudar


Tudo que foi feito em troca de uma amizade, mas

Felicidade é poder estar

Com quem você gosta em algum lugar

É foda ser louco, advogado do mundo, mas

Como tudo deve ser?

É foda ser tachado de doido, vagabundo, mas

Como tudo deve ser?

Foi quando te encontrei

Ouvindo o som e olhando o mar

Foi quando te encontrei

Ouvindo o som do mar rolar

Eu não nasci ontem

Nem quando, como, por onde, mas

Como tudo deve ser

Com as balizas do nosso sistema

Sigo imprimindo meu sonho na história

Como tudo deve ser

Um belo sonho veio então despertar minha vontade

Tudo vale a pena pra te reencontrar

Me livrei de tudo aquilo e consegui mudar


Tudo que foi feito em troca de uma amizade, mas

Foi quando te encontrei

Ouvindo o som e olhando o mar

Foi quando te encontrei

Ouvindo o som do mar rolar

Eu não preciso de promessas

E acho que você também

Eu não tento ser perfeito

E acho que você também

Dias e noites, pensando no que fiz

Eu sou um vencedor

Eu lutei pelo o que eu quis

Mas quando não se pode mais mudar

Tanta coisa errada

Vamos viver nossos sonhos

Temos tão pouco tempo

(Solo)

Foi quando te encontrei

Ouvindo o som e olhando o mar


Foi quando te encontrei

Ouvindo o som do mar rolar

Foi quando te encontrei

Ouvindo o som e olhando o mar

Foi quando te encontrei

Ouvindo o som do mar rolar

Foi quando te encontrei

Ouvindo o som e olhando o mar

Foi quando te encontrei

Ouvindo o som do mar rolar

Ouvindo o som do mar rolar