Você está na página 1de 5

Fade To Black

Metallica
Composição: Cliff Burton / James Hetfield / Kirk Hammett / Lars Ulrich

Tom:  G

Introdução - Parte 1: e|-19-17-15~--15-17-14~---------14-15-14~------------


B|----------------------15-----------------15--------
Violão 5x: G|-------------------------16~----------------14~----
e|--------------------------------------------------- D|---------------------------------------------------
B|--------------------------------------------------- A|---------------------------------------------------
G|-----0---------------0----------------------------- E|---------------------------------------------------
D|---4---4---4---4---4---4---4---4-------------------
A|-2-------2---5---0-------0---5---------------------
E|--------------------------------------------------- e|-14-15-14~-----17--15--14~-------------------------
B|------------15-------------------------------------
G|---------------------------------------------------
e|--------------------------------------------------- D|---------------------------------------------------
B|--------------------------------------------------- A|---------------------------------------------------
G|-----0---------------2----------------------------- E|---------------------------------------------------
D|---4---4---4---4---2---2---2---2-------------------
A|-2-------2---5---4-------4---0---------------------
E|--------------------------------------------------- e|-------------------------------------13-15-13h15p13
B|----------------------------13-15-17---------------
G|-------------------12-14-16------------------------
(Final da Parte 1 da Introdução) D|----------12-14-15---------------------------------
e|--------------------------------------------------- A|-12-14-15------------------------------------------
B|-------------------------------1-3----------------- E|---------------------------------------------------
G|----------------------1------1---------------------
D|---0---------2------2---2--------------------------
A|-----3-----2---2--2-------------------------------- e|----17~~-------------------------------------------
E|-1-----1-4-----------------0----------------------- B|-15------------------------------------------------
G|---------------------------------------------------
D|---------------------------------------------------
(Solo de Guitarra) A|---------------------------------------------------
e|--------------------------------------------------- E|---------------------------------------------------
B|-------------7-8-8/10~--8-10-10/12--10--8-8h10~----
G|----7-11-------------------------------------------
D|-/9------9~---------------------------------------- Introdução - Parte 2 - 4x: Am C G5 Em
A|---------------------------------------------------
E|--------------------------------------------------- (Violão)
Am C
e|-----------0----------------0------------
e|--------------------------------------------------- B|-0h1---------------1-1--1-----------2----
B|-12p10p8\7-8p7---7--7h8--7-----7------------------- G|-2----2--------0h2---0----------0h2------
G|---------------9------------9-----9--7------------- D|-2------2----2-------2----2---2----------
D|-----------------------------------------7--9~----- A|-0-------------------3-------------------
A|--------------------------------------------------- E|-----------------------------------------
E|---------------------------------------------------

G5 Em
e|--------------------------------------------------- e|--------3--------------------------------
B|-----------8-7~--8/10~----------------------------- B|----3---------------------0--1/3---------
G|-7p6~--7p6----------------------------------------- G|-0----------0h2-0-0-------0--2/4---------
D|--------------------------------------------------- D|------0---0-------2---2------------------
A|--------------------------------------------------- A|------------------2-2---2----------------
E|--------------------------------------------------- E|-3----------------0----------------------

e|---14-19p14-------15p14---------------------------- Am C
B|15----------15----------15----17p15p14------------- e|-----------0----------------0------------
G|---------------16----------14----------16-14b16--14 B|-0h1---------------1-1--1-----------2----
D|--------------------------------------------------- G|-2----2--------0h2---0----------0h2------
A|--------------------------------------------------- D|-2------2----2-------2----2---2----------
E|--------------------------------------------------- A|-0-------------------3-------------------
E|-----------------------------------------

e|---------------------------------------------------
B|------------------------14-15-14h15p14----14-15-14- (Guitarra)
G|-14h16------------14-16----------------16----------
D|-------14~--14h16----------------------------------
A|---------------------------------------------------
E|---------------------------------------------------
e|-------------------10-------------------- e|---------------------------------------------------
B|-10--------8-----8------8---------------- B|-5/7-7/8-8/10~--10-12-13~--15b17r15--13--15b17-----
G|-9-------9-----7--------9---------------- G|---------------------------------------------------
D|------10----------------9---------------- D|---------------------------------------------------
A|----------------------------------------- A|---------------------------------------------------
E|----------------------------------------- E|---------------------------------------------------

e|---------------------------------------------------
Primeira Parte: B|-15b17--15b17--15b17--17~--------------------------
G|---------------------------------------------------
Am C D|---------------------------------------------------
Life, it seems, will fade away A|---------------------------------------------------
G5 Em E|---------------------------------------------------
Drifting further every day
Am C
Getting lost within myself
G5 Em Segunda Parte:
Nothing matters, no one else
Am C Am C
I have lost the will to live Things not what they used to be
G5 Em G5 Em
Simply nothing more to give Missing one inside of me
Am C Am C
There is nothing more for me Deathly lost, this can't be real
G5 E5 G5 Em
Need the end to set me free Cannot stand this hell I feel
Am C
Interlúdio - Parte 1 - 2x: A5 C5 A5 D5 E5 ( C5 B5 ) Emptiness is filling me
A5 C5 A5 ( G5 F#5 E5 ) G5 Em
P.M . . . . . . To the point of agony
e|----------------------------------------- Am C
B|----------------------------------------- Growing darkness taking dawn
G|----------------------------------------- G5 E5
D|-2--2-2---------5--5-5---------2--2-2---- I was me, but now he's gone
A|-0--0-0-------5-3--3-3-------5-0--0-0----
E|--------0-0-3----------0-0-3------------- Interlúdio 1 - Parte 1 - 2x: A5 C5 A5 D5 E5 ( C5 B5 )
A5 C5 A5 ( G5 F#5 E5 )

P.M . . Terceira Parte:


e|----------------------------------------- e|-----------------------------------------
B|----------------------------------------- B|-----------------------------------------
G|----------------------------------------- G|-----------------------------------------
D|-7--9--9-9-9-----5-4--------------------- D|-7/9--9-9--7/9--9-12-11--7--7-7----------
A|-5--7--7-7-7-----3-2--------------------- A|-5/7--7-7--5/7--7-10-9---5--5-5----------
E|-------------0-0------------------------- E|-----------------------------------------

P.M . . . . . . P.M . . . . . . . . . .
e|----------------------------------------- e|-----------------------------------------
B|----------------------------------------- B|-----------------------------------------
G|----------------------------------------- G|----------------------------4------------
D|-2--2-2---------5--5-5---------2--2-2---- D|-9-9-9--7-7-7--5-5-5--4-4-4--------------
A|-0--0-0-------5-3--3-3-------5-0--0-0---- A|-----------------------------------------
E|--------0-0-3----------0-0-3------------- E|-----------------------------------------

P.M
e|----------------------------------------- No one but me can save myself, but it's too late
B|----------------------------------------- Now I can't think, think why I should even try
G|----------------------------------------- Interlúdio 2:
D|----------------------------------------- e|-----------------------------------------
A|-5-4-2----------------------------------- B|-----------------------------------------
E|-3-2-0----------------------------------- G|-----------------------------------------
D|-----------------------------------------
A|-9/10--10-10~-9/10--10-14-12~-9--9-9-----
Interlúdio - Parte 2: Am C G5 Em E|-----------------------------------------

e|---------------------------------------------------
B|-/10~--10-12-13~--13/15\13p12---------------------- P.M. . . . . . . . . . .
G|------------------------------12~--12/14\9~-------- e|-----------------------------------------
D|--------------------------------------------------- B|-----------------------------------------
A|--------------------------------------------------- G|----------------------------------7------
E|--------------------------------------------------- D|-12-12-12--11-11-11--9-9-9--7-7-7--------
A|-----------------------------------------
E|-----------------------------------------
Quarta Parte: e|---------------------------------------------------
e|----------------------------------------- B|---------------------------------------------------
B|----------------------------------------- G|---------------------------------------------------
G|----------------------------------------- D|------------4--2-----------------------------------
D|-7/9--9-9--7/9--9-12-11--7--7-7---------- A|-4-2-0------------5--4-2-0-------------------------
A|-5/7--7-7--5/7--7-10-9---5--5-5---------- E|-------2-5-----------------2-----------------------
E|-----------------------------------------

Solo:
P.M . . . . . . . . . .
e|----------------------------------------- (Parte 1)
B|----------------------------------------- e|---------------------------------------------------
G|----------------------------4------------ B|---------------------------------------------------
D|-9-9-9--7-7-7--5-5-5--4-4-4-------------- G|-------7-9b11--9b11--9b11--9b11r9p7-9~-------------
A|----------------------------------------- D|-/9--9---------------------------------------------
E|----------------------------------------- A|---------------------------------------------------
E|---------------------------------------------------

Yesterday seems as though it never existed (Parte 2)


Death greets me warm, now I will just say goodbye e|---------------------------------------------------
Interlúdio 3: B|7h8--7-----8--7-----7h8--7-----10~-8--10--10/12--10
G|--------7--------7----------7----------------------
P.M . . . . . . . . . . D|---------------------------------------------------
e|----------------------------------------- A|---------------------------------------------------
B|----------------------------------------- E|---------------------------------------------------
G|-----------------------------------------
D|---------9----------12-11---------7------
A|---------7----------10-9----------5------ e|---------------------------------------------------
E|-0-0-0-0----0-0-0-0-------0-0-0-0-------- B|-8--8h10--8--7--7h8--7-----7-----------------------
G|------------------------9-----9--7-----------------
D|------------------------------------7~-9-9~--------
P.M . . . . . . . . . . A|---------------------------------------------------
e|----------------------------------------- E|---------------------------------------------------
B|-----------------------------------------
G|----------------------------4------------
D|-9-9-9--7-7-7--5-5-5--4-4-4-------------- (Parte 3)
A|----------------------------------------- e|---------------------------------7-----------7-----
E|----------------------------------------- B|-------------------------------7---10p7--------10p7
G|----7-9-9b11r9p7-9-7~---7-9b11----------9b11-------
D|-/9-------------------9----------------------------
Base do Solo Final: A|---------------------------------------------------
E|---------------------------------------------------
(Guitarra 1)
P.M . . . . . .
e|--------------------------------------------------- e|------7-----------7-----------7-----------7--------
B|--------------------------------------------------- B|--------10p7--------10p7--------10p7--------10p7---
G|--------------------------------------------------- G|-9b11--------9b11--------9b11--------9b11----------
D|----4--5--4--2-0--------4--5--4--2-0--------4--5--4 D|---------------------------------------------------
A|-5---------------4-0-4---------------4-0-2--------- A|---------------------------------------------------
E|--------------------------------------------------- E|---------------------------------------------------

P.M . . e|------7-----------7-10p7----7-10p7-10p7----7-10p7--
e|--------------------------------------------------- B|--------10p7-------------10-------------10---------
B|--------------------------------------------------- G|-9b11--------9b11----------------------------------
G|--------------------------------------------------- D|---------------------------------------------------
D|-2-0--------4--5--5/7--5-4-2-4--------------------- A|---------------------------------------------------
A|-----4-0-4----------------------------------------- E|---------------------------------------------------
E|---------------------------------------------------

e|-10p7----7-10p7----7-10p7-10p7----7-10p7-10p7----7-
(Guitarra 2) B|------10--------10-------------10-------------10---
P.M . . . . . . G|---------------------------------------------------
e|--------------------------------------------------- D|---------------------------------------------------
B|--------------------------------------------------- A|---------------------------------------------------
G|--------------------------------------------------- E|---------------------------------------------------
D|----4--2----------------4--2----------------4--2---
A|-2--------5--4-2-0------------5--4-2-0------------5
E|-------------------2-5-----------------2-3--------- e|10b12--10b12r-10-8-7-8-7----7----------------------
B|-------------------------10---10-8-10-8-7-8-7---7--
G|----------------------------------------------9---9
P.M . . . . . . D|---------------------------------------------------
A|---------------------------------------------------
E|---------------------------------------------------
e|--------------------------------------------------- e|---------------------------------------------------
B|--------------------------------------------------- B|---------------------------------------------------
G|7-------------------------------------------------- G|---7-9-7---7---------------------------------------
D|--7~-9-9~------------------------------------------ D|-9-------9---9-7-9-7---7---------------------------
A|--------------------------------------------------- A|---------------------9---9-7-9-7----7--------------
E|--------------------------------------------------- E|---------------------------------10---10-7-10~-----

(Parte 4) (Parte 7)
e|--------------------------------------------------- e|----12-15p12----12-15p12-14p12----12-15p12-14p12---
B|-8p7---7-8-10-10/12-10-8-7-------------8p7---7-8-10 B|-12----------12----------------12----------------12
G|-----9---------------------9-7-------------9------- G|---------------------------------------------------
D|-------------------------------7~-9-9~------------- D|---------------------------------------------------
A|--------------------------------------------------- A|---------------------------------------------------
E|--------------------------------------------------- E|---------------------------------------------------

e|-7-8-7~-------------------------------------------- e|-12-15p12----12-15p12-14p12----12-15p12-14p12----12
B|--------------------------------------------------- B|----------12----------------12----------------12---
G|--------------------------------------------------- G|---------------------------------------------------
D|--------------------------------------------------- D|---------------------------------------------------
A|--------------------------------------------------- A|---------------------------------------------------
E|--------------------------------------------------- E|---------------------------------------------------

(Parte 8)
(Parte 5) e|-17p14----14-17p14----14-17p14----14-17p14----14---
e|-7-8-10-8-7-8-7----7------------------------------- B|-------15----------15----------15----------15------
B|----------------10---10-8-10-8-7-8-7---7----------- G|---------------------------------------------------
G|-------------------------------------9---9-7-9-7-6- D|---------------------------------------------------
D|--------------------------------------------------- A|---------------------------------------------------
A|--------------------------------------------------- E|---------------------------------------------------
E|---------------------------------------------------

e|-17p14----14-17p14----14-17p14----14-17p14----14---
e|-----------------------7---------------------7----- B|-------15----------15----------15----------15------
B|----------------7-8-10---10-8-7-8p7---7-8-10---10-8 G|---------------------------------------------------
G|7-6-------6-7-9---------------------9-------------- D|---------------------------------------------------
D|----9-7-9------------------------------------------ A|---------------------------------------------------
A|--------------------------------------------------- E|---------------------------------------------------
E|---------------------------------------------------

e|-19p15----15-19p15-17p15----15-19p15-17p15----15---
e|--------------------------------------------------- B|-------17----------------17----------------17------
B|-7-8p7--------------------------------------------- G|---------------------------------------------------
G|--------------------------------------------------- D|---------------------------------------------------
D|--------------------------------------------------- A|---------------------------------------------------
A|--------------------------------------------------- E|---------------------------------------------------
E|---------------------------------------------------

e|-19p15----15-19p15-17p15----15-19p15-17p15----15---
(Parte 6) B|-------17----------------17----------------17------
e|--------------------------------------------------- G|---------------------------------------------------
B|--------------------------------------------------- D|---------------------------------------------------
G|-9b11--9b11--9b11--9b11--b11-b11-b11...------------ A|---------------------------------------------------
D|--------------------------------------------------- E|---------------------------------------------------
A|---------------------------------------------------
E|---------------------------------------------------
e|-21p17----17-21p17----17-21p17----17-21p17----17---
B|-------19----------19----------19----------19------
P.M . . . . . . . . G|---------------------------------------------------
e|--------------------------------------------------- D|---------------------------------------------------
B|-------------7-----7-7-----7-7-----7-----7--------- A|---------------------------------------------------
G|-b11r9p7-----7-----7-7-----7-7-----7-----7--------- E|---------------------------------------------------
D|---------9-9---9-9-----9-9-----9-9---9-9-----------
A|---------------------------------------------------
E|--------------------------------------------------- e|-21p17----17-21p17----17-21p17----17-21p17----17---
B|-------19----------19----------19----------19------
G|---------------------------------------------------
e|--------------------------------------------------- D|---------------------------------------------------
B|-10b12--10b12--10b12~--7h10p7---7-8-7h8p7---------- A|---------------------------------------------------
G|------------------------------9-----------9-7---7-- E|---------------------------------------------------
D|----------------------------------------------9----
A|---------------------------------------------------
E|--------------------------------------------------- (Parte 9)
e|22b24--22b24--22b24--22b24--22b24-22b24-22b24-22b24
B|--------------------------------------------------- e|---------------------------------------------------
G|--------------------------------------------------- B|---------------------------------------------------
D|--------------------------------------------------- G|---------------------------------------------------
A|--------------------------------------------------- D|-17------------------------------------------------
E|--------------------------------------------------- A|----21-19-21-19-17-19-17-16-17~~--19b21-b21-b21...-
E|---------------------------------------------------

e|-19-22-20-19-20-19----19---------------------------
B|-------------------22----22-20-22-20-19-20-19----19 (Parte 10)
G|----------------------------------------------21--- e|-------7---------7---------7---------7---------7---
D|--------------------------------------------------- B|-10b12---7-10b12---7-10b12---7-10b12---7-10b12---7-
A|--------------------------------------------------- G|---------------------------------------------------
E|--------------------------------------------------- D|---------------------------------------------------
A|---------------------------------------------------
E|---------------------------------------------------
e|---------------------------------------------------
B|---------------------------------------------------
G|-21-19-21-19-18-19-18----18------------------------
D|----------------------21----21-19-21-19-17-19-17---
A|-------------------------------------------------21
E|---------------------------------------------------

A5 Am B5 C C5 D5
1 1 5ª 1
2 3 1 2
3 1 3 4
3 4
3 4

E5 Em F#5 G5

1 2 1
1
3 4
3 4