Você está na página 1de 3

Tablatura

Música: Último Romance


Artista: Los Hermanos

Link do vídeo no youtube:


https://www.youtube.com/watch?v=BwXHsUrhUQI

Ajude a divulgar meu trabalho.. se gostou, compartilhe no Facebook !


=)

****************************************************************************

QUALQUER DUVIDA, É SÓ PERGUNTAR NA MINHA PÁGINA NO FACEBOOK !

https://www.facebook.com/NelsinhoViolao

Lá você pode pedir outras Tablaturas, tirar dúvidas, pedir arranjos e saber se tem video novo!!

---------------------------------------------------------------------------

Se inscreva no meu canal no Youtube, lá tem TODOS os meus videos !

http://www.youtube.com/user/Nelsinhouff

****************************************************************************

*** Meu violão tá afinado Meio tom abaixo !!!

Am7(9)

e|--0~~-----------------------------------------------------------------------------------
B|--0~~-----------------------------------------------------------------------------------
G|--5~~-----------------------------------------------------------------------------------
D|--5~~-----------------------------------------------------------------------------------
A|--0~~-----------------------------------------------------------------------------------
E|----------------------------------------------------------------------------------------

Am7(9) D Am7(9) D Am7(9) D G G#º

e|------7--5h7---------------7--5/3-2-----7--5/3-2--2/5-------7-5h7--7--5---------------
B|-----8--------7--5/3/5-----8------------8--------------------------6--6---------------
G|----5----------------------5------------5--------------------------7--7---------------
D|---7----------0------------7---0--0-----7------0-------------------6------------------
A|--0----------------------0-0----------0-0-----------------5---------------------------
E|--------------------------------------------------------3-----------------------------
e|--7--5h7---------------7--5/3-2/3/5------10h12p10--10-12--10--12--10------------------
B|--8------7--5h7p5/3/5--8-----------------10--------10-10--12--12--12------------------
G|--5--------------------5--------------------------------------------------------------
D|--7------0-------------7------0--------------------0----------------------------------
A|--0--------------------0---------------0------------------10------11------------------
E|--------------------------------------------------------------------------------------

e|--7-8---10-12-10~-------8h10--10/12-10--7h8p7\5--8--10-12-10---10--12--10------------------
B|----10--10-12-10~-----10------10/12-10-----------10-10-12-10---12--12--12--13-12-12h13~~---
G|---------------------9---------------------------9-----------------------------------------
D|--------------0---------------------0---0-----------------0--------------------------------
A|--0-0---0-----------0----------------------------0-------------10------11------------------
E|-------------------------------------------------------------------------------------------

C7+ Am7 Bm7 Em D

e|------7~--12H-----7/8-7--5---5------7-----------------------------------------
B|-----8~---------------5--5-8---8----7---7---8--10--8--7-8--5------------------
G|----9~--------7H------5--5----------7---7---9--9---9--7-7--4------------------
D|--10~-------------------------------------------------7----5------------------
A|----------------------0--0----------------------------5-5--3------------------
E|------------------------------------7---7---0---------------------------------

e|-----8-7--7--5---5---5/7------------------7--7--10--10----------------------
B|----------5--5-8---8-5/7--10-8-7-------7--7--7--7---7-----------------------
G|----------5----------------------9-8---8--8--8--8---8-----------------------
D|-----------------------------------7---7------------------------------------
A|----------0------------------------9----------------------------------------
E|--3/8----------------5/7--7--------7-7---7--7--7----------------------------

Em D Am7 D Em D Am D

e|----12---------12-10--8-------------------------7---------------------------
B|--12----12-12-----10----12-10----12-------12-10---10--12-10-10--------------
G|-----------11-----------11-11-12----12-11----9--------11--------------------
D|-----------0--0---------0--------------0--------------0---------------------
A|------------------0--0-----------------------0------------------------------
E|--0----0-------------------------12-----------------------------------------

e|---12-12---------10-8--7-----------------------------------------------12H--
B|---12-12--12-12--10-10-10--10----12-10-----------12--10---------------------
G|----------11-11--9--9------11-12-12----12-11-12---------12-11-12\9~~--------
D|----------0--0-------------0--------------0---------------------------------
A|-----------------0-----0-------------------------0------------0-------------
E|--12-----------------------------0------------------------------------------
e|------7------
B|----8---10---
G|--9----------
D|-------------
A|-------------

C7+ Am7 Bm7 Em D

e|--7----5-7----5-7-------7----------5----------
B|--8------5------7----10-8--10-8-7------------- Repete essa parte 3x
G|--9------5------7-------9--9--9-7-------------
D|----------------------------------------------
A|--------------------------------5-------------
E|--8------5------7-------0-0-------------------

e|--7----5-7----5-7-------7------------0~~------
B|--8------5------7----10-8--10-8-7-8--5~~------
G|--9------5------7-------9--9--9-7----4~~------
D|-------------------------------------5~~------
A|--------------------------------5----3~~------
E|--8------5------7-------0-0-------------------

Os Harmônicos finais..

e|------------------------------------------------------------------------------12H-----
B|------------12H-------12H-------12H-------12H--------12H-------------7H---------------
G|----------------------------------------------------------------12H------12H----------
D|---------7H-------7H---------7H--------7H--------7H--------7H-------------------------
A|--------------------------------------------------------------------------------------
E|--------------------------------------------------------------------------------------

* Se acharem algum erro ou não entenderem alguma parte, postem lá na página no face, que eu tento
ajudar..

Ajude a divulgar meu trabalho.. se gostou, compartilhe o vídeo no face!


=)

=================================================================================================

COMPARTILHE O VIDEO E CURTA MINHA PÁGINA NO FACEBOOK PARA PEGAR OUTRAS TABLATURAS!

https://www.facebook.com/NelsinhoViolao

=)