Você está na página 1de 14

www.fredmaciel.com.

br
Introdução

Fala pessoal, estou muito feliz em compartilhar com vocês um pouco da


minha experiência com escalas.

A verdade é que a maioria dos mais de mil alunos que já lecionei não
querem saber de aprender escalas.

E ficar tocando as escalas realmente só vai haver sentido se você souber


aplicar dentro das músicas.

Por isso neste livro eu irei te dizer como montar, tocar e aplicar as
escalas.

Você não irá aprender a tocar as escalas e sim irá descobrir o grande
segredo que está por trás delas.

Para utilizar este material você pode estar começando do absoluto zero ou
já ser um grande violeiro. O único requisito é você não saber a
importância das escalas. Mas isso eu tenho certeza que você não sabe pois
se soubesse não teria comprado este livro.

Eu gostaria de pedir pra você não ler este livro. Devore-o.

www.fredmaciel.com.br
Como Ler Tablaturas

Para que você entenda este livro é importante que você aprenda a ler
Tablaturas. Algumas pessoas confundem tablaturas com partituras e diferença é
que tablaturas são números e partituras são símbolos.

É importante que você entenda alguns sinais para ler tablaturas.

O lugar onde anotamos a tablatura é chamado de pentagrama, ele é composto por


5 linhas e as cifras das notas no início (a direita) para que você saiba qual
a corda deve ser tocada.

e |------------------------------------|
b |------------------------------------|
G#|------------------------------------|
E |------------------------------------|
B |------------------------------------|

Logo após são adicionados números da direita para esquerda que representa as
notas que você irá tocar na viola. Se for o número (Zero) você terá que tocar
a corda solta, se for o (um)você irá pressionar o dedo na casa 1 na corda que
está escrito. E assim por diante.

e |--​0​--​1​--2--3--4---------------------|
b |------------------------------------|
G#|------------------------------------|
E |------------------------------------|
B |------------------------------------|

Você precisa ter atenção em um detalhe. As cordas são contadas de baixo para
cima porém na tablatura a corda de cima será a de baixo na viola. É o
contrário.

1 par e |------------------------------------|de baixo


2 par b |------------------------------------|
3 par G#|------------------------------------|
4 par E |------------------------------------|
5 par B |------------------------------------|de cima

Estarei disponibilizando um vídeo sobre como ler tablaturas no seu portal de


estudos.

www.fredmaciel.com.br
Tom e Semitons (como saber os nomes das notas)

Esta matéria é muito importante. Nela você irá saber como encontrar o nome de
cada nota na sua viola. E isso é importante porém não é necessário, isso
porque com o tempo você irá aprender o nome destas notas. O sentido de colocar
essa matéria neste livro é você entender como localizar o nome da nota, não
precisa decorar.

Tom quer dizer 1 e semitom quer dizer ½ . Essa no caso é a distância entre as
notas que por padrão pode ser 1 ou ½ .

Então se você pegar o primeiro par que é a nota Mi, você terá uma sequência de
notas após ela. Esta sequência segue o padrão abaixo.

DO - DO# - RE - RE# - ​MI - FÁ​ - FÁ# - SOL - SOL# - LÁ - LÁ# - ​SI - DO

Observe que algumas notas tem o sinal na frente que se chama sustenido (#).
Este sinal significa que você aumentou ½ tom na nota.

Exemplo: DO para RE tem 1 tom e DO para DO# tem ½ tom.

Observe também que do (MI - FÁ) e (SI - DO) não tem #.


Este intervalos é de ½ tom e uma dica que te dou é pensar assim: as notas que
terminam com a letra i n˜ão tem #.

Para que você entenda melhor eu estarei disponibilizando também um vídeo no


portal de estudos.

www.fredmaciel.com.br
Como montar as escalas

As escalas para viola poderão ser:

Duetadas: Tocar dois pares de cordas juntos.


Diatônicas: Tocar apenas 1 par de corda.

Elas estão presentes em todos os solos e ponteios de viola. Por isso a


importância de treinarmos no início dos estudos. Neste livro iremos fazer as
escalas duetadas no tom de Mi. Mas você irá perceber que treinando em Mi você
já irá ter uma noção muito boa na hora de tocar os solos, ponteios e arranjos
também chamados de contra cantos por ser tocados na maioria das vezes após uma
frase de canto, ou seja contra o canto.

Abaixo irei disponibilizar a tablatura e os vídeos para que você treine apenas
as escalas fundamentais para deslanchar na viola caipira.

Agora é com você violeiro. Vai lá é faz!!!

Afinação CEBOLÃO em MI

Escala de Mi(E) horizontal 1 e 2 par Escala de Mi(E) horizontal 4 e 5 par

e |---0---2---4---5---7----9---11----|-----------------------------------|
b |---2---4---5---7---9---10---12----|-----------------------------------|
G#|----------------------------------|-----------------------------------|
E |----------------------------------|----0---2---4---5---7----9---11----|
B |----------------------------------|----2---4---5---7---9---10---12----|

Escala de Mi(E) horizontal 2 e 3 par Escala de Mi(E) horizontal 3 e 4 par

e |-------------------------------------|-------------------------------------|
b |---0---2---4---5---7---9---10---12---|-------------------------------------|
G#|---0---1---3---5---7---8---10---12---|---0---1---3---5---7---8---10---12---|
E |-------------------------------------|---0---2---4---5---7---9---11---12---|
B |-------------------------------------|-------------------------------------|

www.fredmaciel.com.br
Escala de Mi(E) horizontal = 1 e 3 par Escala de Mi Mi(E) Vertical

e |---0---2---4---5---7---9---11---12---|---------------------------2---4-----|
b |-------------------------------------|-----------0---2---4---5---4---5-----|
G#|---0---1---3---5---7---8---10---12---|---0---1---0---1---3---5-------------|
E |-------------------------------------|---0---2-----------------------------|
B |-------------------------------------|-------------------------------------|

Exercício prático = Escala de Mi(E)

e |-------------------------------------|--0---2---4---5---7---5---4---2---0--|
b |----------0---2---4---2---0----------|-------------------------------------|
G#|--0---1---0---1---3---1---0---1---0--|--0---1---3---5---7---5---3---1---0--|
E |--0---2-----------------------2---0--|-------------------------------------|
B |-------------------------------------|-------------------------------------|

e |---4---5---7----9---11----9---7---5---4---|
b |---5---7---9---10---12---10---9---7---5---|
G#|------------------------------------------|
E |------------------------------------------|
B |------------------------------------------|

Escala de Fá sustenido(F#) Vertical

e |-------------------1---2---4---6----|
b |-----------2---4---2---4---6---7----|
G#|---2---3---2---3--------------------|
E |---2---4----------------------------|
B |------------------------------------|

Exercício prático = Escala de Fá sustenido(F#)

e |-------------------------------------|---2---4---6---7---9---7---6---4---2--|
b |----------2---4---6---4---2----------|--------------------------------------|
G#|--2---3---2---3---5---3---2---3---2--|---2---3---5---7---9---7---5---3---2--|
E |--2---4-----------------------4---2--|--------------------------------------|
B |-------------------------------------|--------------------------------------|

e |---6---7----9---11---13---11----9---7---6---|
b |---7---9---11---12---14---12---11---9---7---|
G#|--------------------------------------------|
E |--------------------------------------------|
B |--------------------------------------------|

www.fredmaciel.com.br
Escala de Sol(G) Vertical

e |-------------------2---3---5---8---|
b |-----------3---5---3---5---7---7---|
G#|---3---4---3---4-------------------|
E |---3---5---------------------------|
B |-----------------------------------|

Exercício prático = Escala de Sol(G)

e |-------------------------------------|--3---5---7---8---10---8---7---5---3--|
b |----------3---5---7---5---3----------|--------------------------------------|
G#|--3---4---3---4---6---4---3---4---3--|--3---4---6---8---10---8---6---4---3--|
E |--3---5-----------------------5---3--|--------------------------------------|
B |-------------------------------------|--------------------------------------|

e |---7----8---10---12---14---12---10----8---7---|
b |---8---10---12---13---15---13---12---10---8---|
G#|----------------------------------------------|
E |----------------------------------------------|
B |----------------------------------------------|

Escala de Lá(A) Vertical

e |-------------------4---5---7----9---|
b |-----------5---7---5---7---9---10---|
G#|---5---6---5---6--------------------|
E |---5---7----------------------------|
B |------------------------------------|

Exercício prático = Escala de Lá(A)

e |------------------------------------|--5---7---9---10---12---10---9---7---5-|
b |---------5---7---9---7---5----------|---------------------------------------|
G#|-5---6---5---6---8---6---5---6---5--|--5---6---8---10---12---10---8---6---5-|
E |-5---7-----------------------7---5--|---------------------------------------|
B |------------------------------------|---------------------------------------|

e |----9---10---12---14---16---14---12---10----9---|
b |---10---12---14---15---17---15---14---12---10---|
G#|------------------------------------------------|
E |------------------------------------------------|
B |------------------------------------------------|

www.fredmaciel.com.br
Escala de Si(B) Vertical

e |-------------------6---7----9---11---|
b |-----------7---9---7---9---11---12---|
G#|---7---8---7---8---------------------|
E |---7---9-----------------------------|
B |-------------------------------------|

Exercício prático = Escala de Si(B)

e |------------------------------------|-7---9---11---12---14---12---11---9--7-|
b |---------7---9---11---9---7---------|---------------------------------------|
G#|-7---8---7---8---10---8---7---8---7-|-7---8---10---12---14---12---10---8--7-|
E |-7---9------------------------9---7-|---------------------------------------|
B |------------------------------------|---------------------------------------|

e |---11---12---14---16---18---16---14---12---11---|
b |---12---14---16---17---19---17---16---14---12---|
G#|------------------------------------------------|
E |------------------------------------------------|
B |------------------------------------------------|

Escala Diatônica de Mi

e |------------------------0-|
b |------------------2--4----|
G#|---------0--1--3----------|
E |---0--2-------------------|
B |--------------------------|

Escala Diatônica de Fá

e |---------------------0--1-|
b |---------------1--3-------|
G#|---------1--2-------------|
E |---1--3-------------------|
B |--------------------------|

Escala Diatônica de Sol

e |------------------0--2--3-|
b |------------1--3----------|
G#|------1--3----------------|
E |---3----------------------|
B |--------------------------|

www.fredmaciel.com.br
Escala Diatônica de Lá

e |---------------------4--5-|
b |---------------5--7-------|
G#|---------5--6-------------|
E |---5--7-------------------|
B |--------------------------|

Escala Diatônica de Si

e |---------------------6--7----|----------------------------|
b |---------------7--9----------|----------------------------|
G#|---------7--8----------------|---------------------2--3---|
E |---7--9----------------------|------------0--2--4---------|
B |-----------------------------|---0--2--4------------------|

Escala Diatônica de Dó

e |--------------------------|
b |------------------------1-|
G#|------------------1--3----|
E |---------0--1--3----------|
B |---1--3-------------------|

Dó Ré ​Mi Fá​ Sol Lá ​Si Dó

Escala Diatônica de Ré

e |--------------------------|
b |---------------------2--3-|
G#|---------------1--3-------|
E |------0--2--3-------------|
B |---3----------------------|

www.fredmaciel.com.br
Afinação CEBOLÃO em RÉ

Escala de Ré(D) horizontal 1 e 2 par Escala de Ré(D) horizontal 4 e 5 par

d |---0---2---4---5---7----9---11----|-----------------------------------|
a |---2---4---5---7---9---10---12----|-----------------------------------|
F#|----------------------------------|-----------------------------------|
D |----------------------------------|----0---2---4---5---7----9---11----|
A |----------------------------------|----2---4---5---7---9---10---12----|

Escala de Ré(D) horizontal 2 e 3 par Escala de Ré(D) horizontal 3 e 4 par

d |-------------------------------------|-------------------------------------|
a |---0---2---4---5---7---9---10---12---|-------------------------------------|
F#|---0---1---3---5---7---8---10---12---|---0---1---3---5---7---8---10---12---|
D |-------------------------------------|---0---2---4---5---7---9---11---12---|
A |-------------------------------------|-------------------------------------|

Escala de Ré(D) horizontal = 1 e 3 par Escala de Ré(D) Vertical

d |---0---2---4---5---7---9---11---12---|---------------------------2---4-----|
a |-------------------------------------|-----------0---2---4---5---4---5-----|
F#|---0---1---3---5---7---8---10---12---|---0---1---0---1---3---5-------------|
D |-------------------------------------|---0---2-----------------------------|
A |-------------------------------------|-------------------------------------|

Exercício prático = Escala de Ré(D)

d |-------------------------------------|--0---2---4---5---7---5---4---2---0--|
a |----------0---2---4---2---0----------|-------------------------------------|
F#|--0---1---0---1---3---1---0---1---0--|--0---1---3---5---7---5---3---1---0--|
D |--0---2-----------------------2---0--|-------------------------------------|
A |-------------------------------------|-------------------------------------|

d |---4---5---7----9---11----9---7---5---4---|
a |---5---7---9---10---12---10---9---7---5---|
F#|------------------------------------------|
D |------------------------------------------|
A |------------------------------------------|

www.fredmaciel.com.br
Escala de Mi(E) Vertical

d |-------------------1---2---4---6----|
a |-----------2---4---2---4---6---7----|
F#|---2---3---2---3--------------------|
D |---2---4----------------------------|
A |------------------------------------|

Exercício prático = Escala de Mi(E)

d |-------------------------------------|---2---4---6---7---9---7---6---4---2-|
a |----------2---4---6---4---2----------|-------------------------------------|
F#|--2---3---2---3---5---3---2---3---2--|--2---3---5---7---9---7---5---3---2--|
D |--2---4-----------------------4---2--|-------------------------------------|
A |-------------------------------------|-------------------------------------|

d |---6---7----9---11---13---11----9---7---6---|
a |---7---9---11---12---14---12---11---9---7---|
F#|--------------------------------------------|
D |--------------------------------------------|
A |--------------------------------------------|

Escala de Fá(F) Vertical

d |-------------------2---5---8---|
a |-----------3---5---3---7---7---|
F#|---3---4---3---4---------------|
D |---3---5-----------------------|
A |-------------------------------|

Exercício prático = Escala de Fá(F)

d |-------------------------------------|--3---5---7---8---10---8---7---5---3--|
a |----------3---5---7---5---3----------|--------------------------------------|
F#|--3---4---3---4---6---4---3---4---3--|--3---4---6---8---10---8---6---4---3--|
D |--3---5-----------------------5---3--|--------------------------------------|
A |-------------------------------------|--------------------------------------|

d |---7----8---10---12---14---12---10----8---7---|
a |---8---10---12---13---15---13---12---10---8---|
F#|----------------------------------------------|
D |----------------------------------------------|
A |----------------------------------------------|

www.fredmaciel.com.br
Escala de Sol(G) Vertical

d |-------------------4---5---7----9---|
a |-----------5---7---5---7---9---10---|
F#|---5---6---5---6--------------------|
D |---5---7----------------------------|
A |------------------------------------|

Exercício prático = Escala de Sol(G)

d |------------------------------------|--5---7---9---10---12---10---9---7---5-|
a |---------5---7---9---7---5----------|---------------------------------------|
F#|-5---6---5---6---8---6---5---6---5--|--5---6---8---10---12---10---8---6---5-|
D |-5---7-----------------------7---5--|---------------------------------------|
A |------------------------------------|---------------------------------------|

d |----9---10---12---14---16---14---12---10----9---|
a |---10---12---14---15---17---15---14---12---10---|
F#|------------------------------------------------|
D |------------------------------------------------|
A |------------------------------------------------|

Escala de Lá(A) Vertical

d |-------------------6---7----9---11---|
a |-----------7---9---7---9---11---12---|
F#|---7---8---7---8---------------------|
D |---7---9-----------------------------|
A |-------------------------------------|

Exercício prático = Escala de Lá(A)

d |------------------------------------|-7---9---11---12---14---12---11---9--7-|
a |---------7---9---11---9---7---------|---------------------------------------|
F#|-7---8---7---8---10---8---7---8---7-|-7---8---10---12---14---12---10---8--7-|
d |-7---9------------------------9---7-|---------------------------------------|
A |------------------------------------|---------------------------------------|

d |---11---12---14---16---18---16---14---12---11---|
a |---12---14---16---17---19---17---16---14---12---|
F#|------------------------------------------------|
D |------------------------------------------------|
A |------------------------------------------------|

www.fredmaciel.com.br
Escala Diatônica de Ré

d |------------------------0-|
a |------------------2--4----|
F#|---------0--1--3----------|
D |---0--2-------------------|
A |--------------------------|

Escala Diatônica de Mib

d |---------------------0--1-|
a |---------------1--3-------|
F#|---------1--2-------------|
D |---1--3-------------------|
A |--------------------------|

Escala Diatônica de Fá

d |------------------0--2--3-|
a |------------1--3----------|
F#|------1--3----------------|
d |---3----------------------|
A |--------------------------|

Escala Diatônica de Sol

d |---------------------4--5-|
a |---------------5--7-------|
F#|---------5--6-------------|
D |---5--7-------------------|
A |--------------------------|

Escala Diatônica de Lá

d |---------------------6--7----|----------------------------|
a |---------------7--9----------|----------------------------|
F#|---------7--8----------------|---------------------2--3---|
D |---7--9----------------------|------------0--2--4---------|
A |-----------------------------|---0--2--4------------------|

www.fredmaciel.com.br
Escala Diatônica de Si

d |--------------------------|
a |------------------------1-|
F#|------------------1--3----|
D |---------0--1--3----------|
A |---1--3-------------------|

Escala Diatônica de Dó

d |--------------------------|
a |---------------------2--3-|
F#|---------------1--3-------|
D |------0--2--3-------------|
A |---3----------------------|

Dó Ré ​Mi Fá​ Sol Lá ​Si Dó

www.fredmaciel.com.br