Você está na página 1de 3

Alfa e Ômega

Marine Almeida

Tom:  D

(Tempo: 146bpm)

Intro: G D/F#

G D/F#
Não há outro como Tu
G D/F#
Soberano e Fiel
G Bm
Não há outro como Tu
G A
Reinas sobre a Terra e céus

D
És o Alfa e Ômega, Início e Fim
A
És o ar que eu respiro, tudo pra mim
G Em A
Tu és Jesus, tu és Jesus

Intro: G D/F# 2x

G D/F#
Não há outro como Tu
G D/F#
Soberano e Fiel
G Bm
Não há outro como Tu
G A
Reinas sobre a Terra e céus

D
És o Alfa e Ômega, Início e Fim
A
És o ar que eu respiro, tudo pra mim
G Em A
Tu és Jesus, tu és Jesus
Bm
És o Alfa e Ômega, Início e Fim
A/C# D
És o ar que eu respiro, tudo pra mim,
D/F# G Em A
Tu és Jesus, tu és Jesus

Solo Guitarra (para cada casa palhetar 3 vezes seguindo o bit)

E|---------------------------------------7-7-7-7/9-10-10-10-10/15-15-15-14-14-1
B|--------------------8-7-7-7/3/5-5-5-5----------------------------------------
G|-2/4-4-4/6-7-7-7-------------------------------------------------------------
D|-----------------------------------------------------------------------------
A|-----------------------------------------------------------------------------
E|-----------------------------------------------------------------------------

Base Solo:

G A Bm Em Bm D A (2x)

Final Solo Guitarra (para cada casa palhetar 3 vezes seguindo o bit)

E|--------7-7-7-7/9-10-10-10-10/15-15-15-14-14-14-10/12-----------|
B|----------------------------------------------------------------|
G|----------------------------------------------------------------|
D|----------------------------------------------------------------|
A|----------------------------------------------------------------|
E|----------------------------------------------------------------|

Final Base:

G A Bm Em Bm D A
G A A/C# Bm D D/F#

1 1 2 3 1 1 2 1 2 3
2 3 2 3 4
2 3 4
3 4

Em

1 2