Você está na página 1de 6

O que você quer tocar hoje?

Listas Aprenda Envia

página inicial ► alternativo ► hoobastank ► the reason

-16% -28% -28% -23% -23%

The Reason
Hoobastank
Cifra: Principal (violão e guitarra)

Tom: E
Videoaula

Auto rolagem Introdução: E

Texto E
E|----------------------------------------------------|
- ½ Tom B|---7---9-----------7---9-----------7---9------------|
G|-9---------8---9-----------8---9--------------------|
Afinação D|----------------------------------------------------|
A|-----7---7---7---7---7---7---7---7---7---7----------|
Capotraste
E|----------------------------------------------------|

Exibir
E|----------------------------------------------------|
B|---------7---9--------------------------------------|
Adicionar à lista G|-8---9-----------8----------------------------------|
D|----------------------------------------------------|
Metrônomo A|---7---7---7---7---7--------------------------------|
E|----------------------------------------------------|
Dicionário

Primeira Parte:
Corrigir

E
Imprimir
E|----------------------------------------------------|
Baixar cifra B|-----7---9-----------7---9-----------7---9----------|
G|-9-----------8---9-----------8---9-----------8------|

Cifra Club Pro


D|----------------------------------------------------|
A|---7---7---7---7---7---7---7---7---7---7---7---7----|
E|----------------------------------------------------|
C#m
E|----------------------------------------------------|
B|-----7---9-----------4---5-----------4---5----------|
G|-9-----------8---6-----------4---6-----------4------|
D|----------------------------------------------------|
A|---7---7---7---7---4---4---4---4---4---4---4---4----|
E|----------------------------------------------------|
E
E|----------------------------------------------------|
B|-----4---5-----------4---5-----------7---9----------|
G|-6-----------4---6-----------4---9-----------8------|
D|----------------------------------------------------|
A|---4---4---4---4---4---4---4---4---7---7---7---7----|
E|----------------------------------------------------|

E|----------------------------------------------------|
B|-----7---9-----------7---9-----------7---9----------|
G|-9-----------8---9-----------8---9-----------8------|
D|----------------------------------------------------|
NOUVEAU LATITUDE 9510 Acordes
A|---7---7---7---7---7---7---7---7---7---7---7---7----|
Intel Core i7 vPro
E
O que
And thevocê quer tocar
reason hoje?
is you Listas Aprenda Envia

Segunda Parte:

C#m
I'm sorry that I hurt you
E
It's something I must live with everyday
C#m
And all the pain I put you through
A5(9)
I wish that I could take it all away
B5(9) (Riff 1)
And be the one who catches all your tears

Segundo Refrão:

(Guitarra 2)

E5/B C#5/G# A5 B5/F#


E|-12------16------17----16---14----------------------|
B|----------------------------------------------------|
G|----------------------------------------------------|
D|----------------------------------------------------|
A|----------------------------------------------------|
E|----------------------------------------------------|
D5/A E5 D5/A E5
E|-12------16------17------16-------------------------|
B|----------------------------------------------------|
G|----------------------------------------------------|
D|----------------------------------------------------|
A|----------------------------------------------------|
E|----------------------------------------------------|

E5/B
That's why I need you to hear
C#5/G#
I've found out a reason for me
A5
To change who I used to be
B5/F#
A reason to start over new
D5/A
And the reason is you
E5
And the reason is you
D5/A
And the reason is you
E5
And the reason is you

Terceira Parte:

E
E|----------------------------------------------------|
B|-----7---9-----------7---9-----------7---9----------|
G|-9-----------8---9-----------8---9-----------8------|
D|----------------------------------------------------|
A|---7---7---7---7---7---7---7---7---7---7---7---7----|
E|----------------------------------------------------|
C#m
E|----------------------------------------------------|
B|-----7---9-----------4---5-----------4---5----------|
G|-9-----------8---6-----------4---6-----------4------|
D|----------------------------------------------------|
NOUVEAU LATITUDE
A|---7---7---7---7---4---4---4---4---4---4---4---4----| 9510 Acordes

E|----------------------------------------------------| Intel Core i7 vPro


A5(9)
O que você quer tocar hoje?
E|----------------------------------------------------| Listas Aprenda Envia
B|-----4---5-----------4---5-----------4---5----------|
G|-6-----------4---6-----------4---6-----------4------|
D|----------------------------------------------------|
A|---4---4---4---4---4---4---4---4---0---0---0---0----|
E|----------------------------------------------------|

E|----------------------------------------------------|
B|-----4---5-----------4---5-----------4---5----------|
G|-6-----------4---6-----------4---6-----------4------|
D|----------------------------------------------------|
A|---0---0---0---0---0---0---0---0---0---0---0---0----|
E|----------------------------------------------------|
B5(9)
E|----------------------------------------------------|
B|-----2---4-----------2---4-----------2---4----------|
G|-4-----------2---4-----------2---4-----------2------|
D|----------------------------------------------------|
A|---2---2---2---2---2---2---2---2---2---2---2---2----|
E|----------------------------------------------------|

E|----------------------------------------------------|
B|-----2---4------------------------------------------|
G|-4-----------2---2----------------------------------|
D|----------------------------------------------------|
A|---2---2---2---2------------------------------------|
E|----------------------------------------------------|

E C#m
I'm not a perfect person
A5
I never meant to do those things to you
B5(9) (Riff 1)
And so I have to say before I go

Terceiro Refrão:

E5/B
That I just want you to know
C#5/G#
I've found out a reason for me
A5
To change who I used to be
B5/F#
A reason to start over new
E5/B
And the reason is you

C#5/G#
I've found out a reason to show
A5
A side of me you didn't know
B5/F#
A reason for all that I do
E5/B
And the reason is you
Composição de Dan Estrin / Douglas Robb Colabo

Violão e guitarra Teclado Cavaco Ukulele Viola caipira

A5 A5(9) B5(9) B5/F# C#5/G# C#m D5/A E E5


5ª 1 4ª 5ª 1
1 1 2 2 3 2 2 3
3 4 3 4
3 4 3

NOUVEAU LATITUDE 9510 Acordes

Intel Core i7 vPro


E|----------------------------------------------------|
O que
C#m você quer tocar hoje? Listas Aprenda Envia
E|----------------------------------------------------|
B|-----4---5-----------4---5-----------4---5----------|
G|-6-----------4---6-----------4---6-----------4------|
D|----------------------------------------------------|
A|---4---4---4---4---4---4---4---4---4---4---4---4----|
E|----------------------------------------------------|
A5(9)
E|----------------------------------------------------|
B|-----4---5-----------4---5-----------4---5----------|
G|-6-----------4---6-----------4---6-----------4------|
D|----------------------------------------------------|
A|---4---4---4---4---0---0---0---0---0---0---0---0----|
E|----------------------------------------------------|
B5(9)
E|----------------------------------------------------|
B|-----4---5-----------4---5-----------2---4----------|
G|-6-----------4---6-----------4---4-----------2------|
D|----------------------------------------------------|
A|---0---0---0---0---0---0---0---0---2---2---2---4----|
E|----------------------------------------------------|

E|----------------------------------------------------|
B|-----2---4-----------2---4-----------2---4----------|
G|-4-----------2---4-----------2---4-----------2---2--|
D|----------------------------------------------------|
A|---2---2---2---2---2---2---2---2---2---2---2---2----|
E|----------------------------------------------------|

E C#m
I'm not a perfect person
E
There's many things I wish I didn't do
C#m
But I continue learning
A5(9)
I never meant to do those things to you
B5(9) (Riff 1)
And so, I have to say before I go

(Riff 1)

E|-11-12-11-12-11-12-11-12-11-12-11-12-11-12-11-12----|
B|----------------------------------------------------|
G|----------------------------------------------------| (2x)
D|----------------------------------------------------|
A|----------------------------------------------------|
E|----------------------------------------------------|

Primeiro Refrão:

(Guitarra 2)

E5/B C#5/G# A5 B5/F#


E|-12------16------17----16---14----------------------|
B|----------------------------------------------------|
G|----------------------------------------------------|
D|----------------------------------------------------|
A|----------------------------------------------------|
E|----------------------------------------------------|

E5/B
That I just want you to know
C#5/G#
I've found out a reason for me
A5
To change who I used to be
B5/F# NOUVEAU LATITUDE 9510 Acordes
A reason to start over new Intel Core i7 vPro
O que você quer tocar hoje? Listas Aprenda Envia

13 comentários Conseguiu toca


94
Adicione um comentário Comentar Sim
Tocaram

Fantroyer Fan
essa musica é maravilhosa pqp

Curtir (1) • Responder • há 6 meses

Thaís Sete
Linda. Gosto dessa música ü

Curtir (2) • Responder • há 6 anos

Cristiano Morgante
Tenho uma boss gt8, pode me ajudar com o timbre para essa music? valew!

Curtir • Responder • há 7 anos

Juliagrasi Pontes
aula de violão pfv Relacionados
Curtir (1) • Responder • há 7 anos

1 resposta

Paulo Meloti
Nossa, o Vinícius emagreceu pra caramba :o Rock and Roll Rock an
Sick Puppies Trapt
Curtir • Responder • há 7 anos

Ver todos os comentários

Rock and Roll Rock an


Mais acessadas de Hoobastank 3 Doors Down Hinder

1 The Reason 11 Crawling In The Dark

2 The Reason (Acoustic Live at "91X Garage") 12 I Don't Think I Love You

3 Disappear 13 Running away

4 Lucky 14 Too Little Too Late

5 Same Direction 15 What Happened To US?

6 Crawling In The Dark (Acústico) 16 If I Were You Intro

7 Crawling In The Dark Acoustic 17 If I Were You

8 Girls Just Wanna Have Fun 18 If I Were You

9 Inside Of You 19 First Of Me

10 Out Of Control 20 Just One

Ver mais

NOUVEAU LATITUDE 9510 Acordes

Intel Core i7 vPro


O que você quer tocar hoje? Listas Aprenda Envia

Todos os artistas A B C D E F G H I J K L M N O P Q R S T U V W

Músicas Aprenda Participe Assine

Top músicas e artistas Como tocar violão Crie sua conta grátis Cifra Club Pro

Novidades Afinador Envie cifras Youtube Membros

Vídeos Dicionário de acordes Peça cifras

Aplicativos Siga-nos

Youtube Facebook Insta

Mais música em Idiomas

Português Español

Feito com em Belo Horizonte


© 1996 - 2020, 490 mil músicas, 43 milhões de pessoas cadastradas
O maior site de ensino de música do Brasil

Parceiro: Terra Música

NOUVEAU LATITUDE 9510 Acordes

Intel Core i7 vPro