Você está na página 1de 4

Raul Seixas - Maluco Beleza

[Intro]

Am G C
E|-0--------1-0-----------X---------X-------|
B|---3-1--------3-0-1-3-1-X-1-----1-X-------|
G|-------2------0-------0-X-0-----0-X-------|
D|-------2------0-------2-X-2-----2-X-------|
A|-------0------2-------3-X---3-3---X-------|
E|--------------3---------X---------X-------|

E|-5\3-3---X---------X----------------------|
B|-------1-X-1-----1-X-1--------------------|
G|-------0-X-0-----0-X-0--------------------|
D|-------2-X-2-----2-X-2--------------------|
A|-----3---X---3-3---X---3------------------|
E|---------X---------X----------------------|

[Primeira Parte]

Parte 1 de 8

C G/B
E|-----X---------X---------X---------X------|
B|---1-X-1-----1-X-1-----3-X-3-----3-X-3----|
G|---0-X-0-----0-X-0-----0-X-0-----0-X-0----|
D|---2-X-2-----2-X-2-----0-X-0-----0-X-0----|
A|-3---X---3-3---X---3-2---X---2-2---X---2--|
E|-----X---------X---------X---------X------|

Parte 2 de 8

Am F
E|-----X---------X---------X---------X------|
B|---1-X-1-----1-X-1-------X---------X------|
G|---2-X-2-----2-X-2-----2-X-2-----2-X-2----|
D|---2-X-2-----2-X-2-----3-X-3-----3-X-3----|
A|-0---X---0-0---X---0---3-X-3-----3-X-3----|
E|-----X---------X-----1---X---1-1---X---1--|

Parte 3 de 8

G C
E|-----X---------X---------X---------X------|
B|---0-X-0-----0-X-0-----1-X-1-----1-X-1----|
G|---0-X-0-----0-X-0-----0-X-0-----0-X-0----|
D|---0-X-0-----0-X-0-----2-X-2-----2-X-2----|
A|-----X---------X-----3---X---3-3---X---3--|
E|-3---X---3-3---X---3-----X---------X------|

Parte 4 de 8

G
E|-----X---------X--------------------------|
B|---0-X-0-----0-X-0------------------------|
G|---0-X-0-----0-X-0------------------------|
D|---0-X-0-----0-X-0------------------------|
A|-----X---------X--------------------------|
E|-3---X---3-3---X---3----------------------|

Parte 5 de 8

C G/B
E|-----X---------X---------X---------X------|
B|---1-X-1-----1-X-1-----3-X-3-----3-X-3----|
G|---0-X-0-----0-X-0-----0-X-0-----0-X-0----|
D|---2-X-2-----2-X-2-----0-X-0-----0-X-0----|
A|-3---X---3-3---X---3-2---X---2-2---X---2--|
E|-----X---------X---------X---------X------|

Parte 6 de 8

Am F
E|-----X---------X---------X---------X------|
B|---1-X-1-----1-X-1-------X---------X------|
G|---2-X-2-----2-X-2-----2-X-2-----2-X-2----|
D|---2-X-2-----2-X-2-----3-X-3-----3-X-3----|
A|-0---X---0-0---X---0---3-X-3-----3-X-3----|
E|-----X---------X-----1---X---1-1---X---1--|

Parte 7 de 8

G C
E|-----X---------X---------X---------X------|
B|---0-X-0-----0-X-0-----1-X-1-----1-X-1----|
G|---0-X-0-----0-X-0-----0-X-0-----0-X-0----|
D|---0-X-0-----0-X-0-----2-X-2-----2-X-2----|
A|-----X---------X-----3---X---3-3---X---2--|
E|-3---X---3-3---X---3-----X---------X------|

Parte 8 de 8

Am
E|-----X---------X--------------------------|
B|---1-X-1-----1-X-1------------------------|
G|---2-X-2-----2-X-2------------------------|
D|---2-X-2-----2-X-2------------------------|
A|-0---X---0-0---X---0----------------------|
E|-----X---------X--------------------------|

C G/B
Enquanto você se esforça pra ser
Am F
Um sujeito normal
G C G
E fazer tudo igual
C G/B
Eu do meu lado aprendendo a ser louco
Am F
Um maluco total
G C Am
Na loucura real

[Segunda Parte]

Dm G
Controlando a minha maluquez
Dm G
Misturada com minha lucidez

[Refrão]

C E7
Vou ficar
F G
Ficar com certeza maluco beleza
C E7
Eu vou ficar
F G G7
Ficar com certeza maluco beleza

[Primeira Parte]

C G/B
Esse caminho que eu mesmo escolhi
Am F
É tão fácil seguir
G C Am
Por não ter onde ir

[Segunda Parte]

Dm G
Controlando a minha maluquez
Dm G
Misturada com minha lucidez

[Solo] C E7 F G C Am Dm

C E7
E|-12/15\8~---8----10/12-12-12--------------|
B|----------8---9~--------------------------|
G|------------------------------------------|
D|------------------------------------------|
A|------------------------------------------|
E|------------------------------------------|
F
E|---13\12----------------------------------|
B|---------13\10----------------------------|
G|------------------------------------------|
D|------------------------------------------|
A|------------------------------------------|
E|------------------------------------------|

G C
E|-------13/15~\13-13-13-13\12\10-----------|
B|-10/12------------------------------------|
G|------------------------------------------|
D|------------------------------------------|
A|------------------------------------------|
E|------------------------------------------|

Am Dm
E|------------5~----------------------------|
B|-13~-13\3/5----5/3~-----------------------|
G|------------------------------------------|
D|------------------------------------------|
A|------------------------------------------|
E|------------------------------------------|

[Segunda Parte]

Dm G
Controlando a minha maluquez
Dm G
Misturada com minha lucidez

[Refrão]

C E7
Vou ficar
F G
Ficar com certeza maluco beleza
C E7
Eu vou ficar
F G
Ficar com certeza maluco beleza

( C E7 F G )
Eu vou ficar

----------------- Acordes -----------------


Am = X 0 2 2 1 0
C = X 3 2 0 1 0
Dm = X X 0 2 3 1
E7 = 0 2 0 1 0 0
F = 1 3 3 2 1 1
G = 3 2 0 0 0 3
G/B = X 2 0 0 3 X
G7 = 3 2 0 0 0 1