Você está na página 1de 4

Espirito Santo - Fernanda Brum

Tom: C
Intro: Am7 G/B B4(7) A G/B G

Am7 G/B B4(7)


E|------------------0----------0-2----------|
B|-0-------0--1---3----------1---0--0-0---0-|
G|-----0---------------0-0-0-----2------2---|
D|---0---0----------------------------------|
A|------------0---2-3------------2----------|
E|-3-------3--------------------------------|

E|-2-3---3-2--------------------------------|
B|------------------------------------------|
G|-----0------------------------------------|
D|---------0--------------------------------|
A|------------------------------------------|
E|---0--------------------------------------|
A Harm D5(9)/F#
E|----------12------------------------------|
B|---3/5--5--------0-1-0-1-0----------3-----|
G|-0------6----2------------0h2-2---2------2|
D|--------------------------------0------0--|
A|--------0----------0----------------------|
E|------------------------3-----2------2----|
Am7
E|------------------------------------------|
B|---0-1-0-1--------------------------------|
G|-2----------------------------------------|
D|------------------------------------------|
A|-----0------------------------------------|
E|------------------------------------------|
G/B G
E|---------------------------3-2------------|
B|-3-----------------------3---3-5--3-----3-|
G|---0-0---0----�2/4\2-0-0-------5--4---0---|
D|------------------------------------0-----|
A|-2---3-3---3------------------------------|
E|-----------------------3-----3----3-------|

E|------------------------------------------|
B|------------------------------------------|
G|-------0----------------------------------|
D|-----0------------------------------------|
A|------------------------------------------|
E|---3--------------------------------------|

Primeira Parte:
G G/B C9 G/B
Esp�rito Santo, ore por mim
Am9 D7 G4 G C/G
Leve pra Deus tudo aquilo que eu preci-so
G G/B C9 G/B
Esp�rito Santo, use as palavras
Am9 D7 G4 G Am7 G/B
Que eu necessito usar, mas n�o consi-go

Dedilhado - Primeira Parte:


G G/B C9
E|-------3----------------------3-3---------|
B|-----3------3-------3---3---3---3---3-----|
G|---0------0---0---0---0---0-----0-0-------|
D|------------------------------------------|
A|------------------------2-------3---------|
E|-3-------3------3-------------------------|

E|-3----------------------------------------|
B|---3--------------------------------------|
G|-----0------------------------------------|
D|-------0----------------------------------|
A|------------------------------------------|
E|------------------------------------------|
C9 G/B Am9 D7
E|-----3---3---3----------0-0-----2------2--|
B|-----3---3---3--------------1---1----1----|
G|---0---0---0---0------4-------2-2--2------|
D|--------------------2-----------0---------|
A|-3-------2--------0-----------------------|
E|------------------------------------------|

E|------------------------------------------|
B|-1----------------------------------------|
G|---2--------------------------------------|
D|-----0------------------------------------|
A|------------------------------------------|
E|------------------------------------------|
G4 G C/G
E|--------------3----3----------------------|
B|-1--0---------5----5----------------------|
G|-0--0----0----5------5--------------------|
D|-------0---0--5--5-----5------------------|
A|------------------------------------------|
E|-3--3-------------------------------------|
G4 G Am7 G/B
E|------------------------------------------|
B|-1--0---------0--------1----3-------------|
G|-0--0----0--------0----0----0-------------|
D|-------0---0----0---0----0----0-----------|
A|-----------------------0----2-------------|
E|-3--3---------3---------------------------|

Segunda Parte:
C7M D/C
Me ajude nas minhas fraquezas
Bm7 Em7(9)
N�o sei como devo pedir
Am9 C/D Dm7 F/G G
Esp�rito Santo, vem interceder por mim

C7M B
Todas as coisa cooperam pra o bem
Em D5(9) A5(9)/C#
Daqueles que amam a ti
Am9 C/D
Esp�rito Santo, vem orar por mim
Dedilhado - Segunda Parte:
C7M D/C Bm7
E|-0---3-0------0-2-----2-----2-2---3-2-----|
B|-0---0-0----0---3---3-----3---3---3-3---2-|
G|-0-0------0-----2-2-----2-----2-2-----3---|
D|------------------------------------------|
A|-3------3-------3-------------2-----2-----|
E|------------------------------------------|
Em7(9)
E|---------0--------------------------------|
B|-------3---3------------------------------|
G|-----0------------------------------------|
D|---4--------------------------------------|
A|------------------------------------------|
E|-0----------------------------------------|
Am9 C/D Dm7 F/G
E|-------0------0--0------1------1----------|
B|-----1---1----1----1----1----1---1---1----|
G|---4-------4--0------0--2--2-------2-2---2|
D|--------------0---------0------------3-3--|
A|-0----------------------------------------|
E|-------------------------------------3----|
G
E|------------------------------------------|
B|-3----------------------------------------|
G|-4---4------------------------------------|
D|-5-5--------------------------------------|
A|------------------------------------------|
E|------------------------------------------|
C7M B Em D5(9)
E|-0-----0-----0-2-----2--------------------|
B|-0-----0-----0-4-----4--------0-------3---|
G|---0-----0---------4----4---0---0---2---2-|
D|-----------------4----4-----------0-------|
A|-3---3-----3---2--------------------------|
E|--------------------------0---------------|
A5(9)/C#
E|-0-----0----------------------------------|
B|-0---0------------------------------------|
G|-2-2--------------------------------------|
D|------------------------------------------|
A|-4----------------------------------------|
E|------------------------------------------|
Am9 C/D
E|---0-------0---------0-------0------------|
B|---------1---1-------1--1------1----------|
G|-2-----4-------4-----0----0------0--------|
D|---------------------0--------------------|
A|-----0-----------0------------------------|
E|------------------------------------------|

Refr�o:
G7M Em7(9) C9
Estou clamando, estou pedindo
G6/B Am7 C/D G7M
S� Deus sabe a dor que estou sentindo
Em7(9) C9
Meu cora��o est� ferido
G6/B Am7 C/D G7M
Mas o meu clamor est� subindo

Dedilhado - Refr�o:
G7M Em7(9)
E|------------------------------------------|
B|-------3----------------3-----------------|
G|-----0-------0--------0-------0-----------|
D|---4-------4---4----4-------4---4---------|
A|------------------------------------------|
E|-3-------3--------0-------0---------------|
C9 G6/B Am7 C/D
E|---0-----------------0---------0----------|
B|-3---3-------3---------1---------1--------|
G|-------0---0---0---0---------0------------|
D|---------------------------0--------------|
A|-3--------2------0------------------------|
E|------------------------------------------|

(Intro - Com varia��o na terceira parte)


G/B G
E|---------------------------3-2------------|
B|-3-----------------------3---3-5--3-----3-|
G|---0-0---0----�2/4\2-0-0-------5--4---0---|
D|------------------------------------0-----|
A|-2---3-3---3------------------------------|
E|-----------------------3-----3----3-------|
Am7 G/B
E|------------------------------------------|
B|-1---3------------------------------------|
G|-0---0------------------------------------|
D|------------------------------------------|
A|-0---2------------------------------------|
E|------------------------------------------|

C7M B
Todas as coisa cooperam pra o bem
Em D5(9) A5(9)/C#
Daqueles que amam a ti
Am9 C/D
Esp�rito Santo, vem orar por mim

(Refr�o)

Final:
G C/D G
E|---------------0----0---------------------|
B|-0-------0-1-3---3--1------0--------------|
G|-----0--------------0--0h2----------------|
D|---0---0----------------------------------|
A|-----------0-2-3--------------------------|
E|-3-------3-----------------3--------------|

Você também pode gostar