Você está na página 1de 3

Obras de Poeta

Chitãozinho & Xororó


Composição de: Chico Lau / Vitau

Tom:

E|-11/12-12-12-12-10-----------------------|
B|-------------------12-10-9---------------|
G#|---------------------------------------|
E|-----------------------------------------|
B|-----------------------------------------|

E|-9/10-10-10-10-9-------------------------|
B|-----------------10-7-5------------------|
G#|---------------------------------------|
E|-----------------------------------------|
B|-----------------------------------------|

E|-7/9-9-9-9-7---------7/9-7-5-------------|
B|-------------9-7-5-5---------------------|
G#|---------------------------------------|
E|-----------------------------------------|
B|-----------------------------------------|
Riff:

E|---------7/9-9-8-7-----------------------|
B|-6-7-8-9---------------------------------|
G#|---------------------------------------|
E|-----------------------------------------|
B|-----------------------------------------|

A E7 A
Os passarinhos enfeitam, os jardins e as florestas
E7 D E7 A
São iguais às melodias, vivem n´alma dos poetas
A7 D F#7 Bm F#7 Bm
Qualquer tipo de canção, sertaneja ou popular
E7 D E7 A
Serve de inspiração.... como tema ou pra rimar

E|-7/9-9-9-9-7---------7/9-7-5-------------|
B|-------------9-7-5-5---------------------|
G#|---------------------------------------|
E|-----------------------------------------|
B|-----------------------------------------|

A E7 A
O construtor da floresta, faz seu prédio na painera
E7 D E7 A
E o maestro Sabiá, faz seu show na laranjeira
A7 D F#7 Bm F#7 Bm
Na copada de um pinheiro, canta alegre o Bem-te-vi
E7 D E7 A
À tarde na capoeira, canta triste a Juriti

E|-11/12-12-12-12-10-----------------------|
B|-------------------12-10-9---------------|
G#|----------------------------------------|
E|-----------------------------------------|
B|-----------------------------------------|

E|-9/10-10-10-10-9-------------------------|
B|-----------------10-7-5------------------|
G#|----------------------------------------|
E|-----------------------------------------|
B|-----------------------------------------|

E|-7/9-9-9-9-7---------7/9-7-5-------------|
B|-------------9-7-5-5---------------------|
G#|----------------------------------------|
E|-----------------------------------------|
B|-----------------------------------------|

A E7 A
Quando ouço um disparo de espingarda tenho dó
E7 D E7 A
Por saber que na palhada está morrendo um Xororó
A7 D F#7 Bm F#7 Bm
Quando o Gavião malvado, vem chegando de mansinho
E7 D E7 A
Atacando sem piedade, deixa viúvo o Canarinho

E|-7/9-9-9-9-7---------7/9-7-5-------------|
B|-------------9-7-5-5---------------------|
G#|---------------------------------------|
E|-----------------------------------------|
B|-----------------------------------------|

A E7 A
No pomar as lindas asas, nas mais variadas cores
E7 D E7 A
Num constante vai e vem dos pequenos Beija-flores
A7 D F#7 Bm F#7 Bm
No moinho o Tico-tico, enche o papo de fubá
E7 D E7 A
E a Pombinha mensageira, foi pra nunca mais voltar

E|--------------0----5--7--5---7/9-----5----|
B|---------2---------------------------5----|
G#|-----1------------------------------5----|
E|-------------------------------------5----|
B|-------------------------------------5----|