Você está na página 1de 4

Teu Reino

Ministério Cristo Vivo


Composição de: Vinícius Zulato

Tom: F# (forma dos acordes no tom de E)

Capotraste na 2ª casa
[Intro]

E|----------------------------------------------------|
B|--4-----4-----4-----4-----7-----7-----7-----7-------|
G|-----4-----4-----4-----4-----4-----4-----4-----4----|
D|----------------------------------------------------|
A|----------------------------------------------------|
E|----------------------------------------------------|

E|----------------------------------------------------|
B|--6-----6-----6-----6-----6-----6-----6-----6-------|
G|-----4-----4-----4-----4-----4-----4-----4-----4----|
D|----------------------------------------------------|
A|----------------------------------------------------|
E|----------------------------------------------------|

[Primeira Parte]

E
Os reinos se abalam
Os povos se curvam
As bocas se abrem
As mãos se levantam
A9
Pra dizer que tu és o rei
F#m E
Pra dizer que tu és o Senhor

E
Os reinos se abalam
Os povos se curvam
As bocas se abrem
As mãos se levantam
A9
Pra dizer que tu és o rei
F#m E
Pra dizer que tu és o Senhor
[Refrão]

A9
Teu Reino é sempre eterno
F#m
Firmado em misericórdia
E
Justiça e igualdade

Bondade e fidelidade
A9 F#m
A tua igreja te adora
E
Tua igreja te adora

A9
Teu Reino é sempre eterno
F#m
Firmado em misericórdia
E
Justiça e igualdade

Bondade e fidelidade
A9 F#m
A tua igreja te adora
E
Tua igreja te adora

[Primeira Parte]

E
Os reinos se abalam
Os povos se curvam
As bocas se abrem
As mãos se levantam
A9
Pra dizer que tu és o rei
F#m E
Pra dizer que tu és o Senhor

E
Os reinos se abalam
Os povos se curvam
As bocas se abrem
As mãos se levantam
A9
Pra dizer que tu és o rei
F#m E
Pra dizer que tu és o Senhor

A9
Pra dizer que tu és o rei
F#m E
Pra dizer que tu és o Senhor

[Refrão]

A9
Teu Reino é sempre eterno
F#m
Firmado em misericórdia
E
Justiça e igualdade

Bondade e fidelidade
A9 F#m
A tua igreja te adora
E
Tua igreja te adora

A9
Teu Reino é sempre eterno
F#m
Firmado em misericórdia
E
Justiça e igualdade

Bondade e fidelidade
A9 F#m
A tua igreja te adora
E
Tua igreja te adora

[Solo] A9 F#m E A9 F#m E


A9 F#m E A9 F#m E

[Refrão]

A9
Teu Reino é sempre eterno
F#m
Firmado em misericórdia
E
Justiça e igualdade
Bondade e fidelidade
A9 F#m
A tua igreja te adora
E
Tua igreja te adora

A9* E* F#m*
2ª 2ª 2ª
1
1 2 2 3

3 4

B9 com F# com G#m com


forma de A9 forma de E forma de
F#m