Você está na página 1de 2

Samba de Uma Nota Só

Tom Jobim
Composição de: Newton Mendonça / Tom Jobim

Tom: G

[Intro] Bm7 Bb7 Am7 G#7(11+)

Bm7 Bb7 Am7 G#7(11+)


Eis aqui este sambinha, feito numa nota só
Bm7 Bb7 Am7 G#7(11+)
Outras notas vão entrar, mas a base é uma só
Dm7(11) Db7(11+) C6 Cm6
Esta outra é consequência, do que acabo de dizer
Bm7 Bb7 Am7 G7M
Como eu sou a consequência, inevitável de você
Cm7 F7(9) Bb7M Eb7(9) Bb7M Eb7(9)
Quanta gente existe por aí, Que fala tanto e não diz nada, ou quase nada
A#m7 Eb7(9) G#7M Am7(5-) D7
Já me utilizei de toda a escala,e no final não sobrou nada, Não deu em na- da
Bm7 Bb7 Am7 G#7(11+)
E voltei prá minha nota, como eu volto prá você
Bm7 Bb7 Am7 G#7(11+)
Vou cantar com a minha nota, como eu gosto de você
Dm7(11) Db7(11+) C6 Cm6
E quem quer todas as notas, Ré, Mi, Fá, Sol, Lá, Si, Dó
Eb7(9) A7 G#7M G7M
Fica sempre sem nenhuma, fique numa nota só

[Tab - Solo]

E|-------------8-----------------------------------------------------------------------------------|
B|-8--10--11-----11-10--8--------------------------------------------------------------------------|
G|------------------------------11--8--------------------------------------------------------------|
D|---------------------------------------12--10---8-----8--10-12-------------------10--------------|
A|-----------------------------------------------------12-----------12--10---12--13------12-10-----|
E|-------------------------------------------------------------------------------------------------|

E|--------------5----------------------------------------------------------------------------------|
B|-5---7---8------8--7---5-------------------------------------------------------------------------|
G|----------------------------8---5----------------------------------------------------------------|
D|--------------------------------------9---7---5------5---7---9-----------------------7---9~10--9-|
A|--------------------------------------------------9--------------9---7------9---10---------------|
E|-------------------------------------------------------------------------------------------------| .
A#m7 A7 Am7 Am7(5-) Bb7
1
3 1 2 2
4 3 4
1
2 3 4

Bb7M Bm7 C6 Cm6 Cm7


7ª 1
2 2 3 1
3 4 3 4 2 3
4 4 3
4

D7 Db7(11+) Dm7(11) Eb7(9) F7(9)


1 4ª 1 2 5ª 5ª 1
2 3 3 3 2 3 4 1
4 2 3
4

G#7(11+) G#7M G7M

1 1 2
2 3 1 2 3 4
4 3 4