Você está na página 1de 2

06/03/2019 Cifra Club - Lenine - Paciência

Paciência
Lenine
Composição: Dudu Falcão / Lenine

Tom: G

(intro) G5(7M) G5(6) G5 Em7(9) Em7 G5(7M) G5(6) G5


Enquanto o tempo acelera e pede pressa
C4+(9) C9 C2(9) G5 Em7(9)

G5(7M) G5(6) G5 Em7 C4+(9)


e|------------------------------------------| Eu me recuso faço hora vou na valsa
B|-----3-----3---------3-----3--------------| C9
G|-------0-----0---------0-----0------------|
D|---4-----4-----4---2-----0-----0----------| C2(9) G5
A|------------------------------------------| A vida tão rara
E|-3---------------3------------------------|
G5(7M) G5(6) G5
Em7(9) Em7 Enquanto todo mundo espera a cura do mal
e|------------------------------------------| Em7(9)
B|-----3-----3---------3-----3--------------|
G|-------0-----0---------0-----0------------| Em7
D|---4-----4-----4---2-----0-----0----------| E a loucura finge que isso tudo é normal
A|------------------------------------------| C4+(9)
E|-0---------------0------------------------|
C9 C2(9) G5
C4+(9) C9 C2(9) Eu finjo ter paciência
e|------------------------------------------|
B|-----3-----3---------3-----3--------------| G5(7M) G5(6) G5
G|-------0-----0---------0-----0------------| O mundo vai girando cada vez mais veloz
D|---4-----4-----4---2-----0-----0----------| Em7(9)
A|-3---------------3------------------------|
E|------------------------------------------| Em7
A gente espera do mundo e o mundo espera de
G5 C4+(9)
e|------------------------------------------| nós
B|-----3-----3---------3-----3--------------| C9 C2(9) G5
G|-------0-----0---------0-----0------------| Um pouco mais de paciência
D|---0-----0-----0---0-----0-----0----------|
A|------------------------------------------| F7M(9)
E|-3---------------3------------------------| Será que é o tempo que lhe falta pra
perceber
G5(7M) G5(6) G5 Em7(11)
Mesmo quando tudo pede um pouco mais de Será que temos esse tempo pra perder
Em7(9) C9 Am7(9)
calma E quem quer saber
Em7 Em7(9)
Até quando o corpo pede um pouco mais de a vida é tão rara. Tão rara
C4+(9) C9
alma F7M(9)
C2(9) G5 Mesmo quando tudo pede um pouco mais de calma
A vida não para Em7(11)
Mesmo quando o corpo pede um pouco mais de
alma

https://www.cifraclub.com.br/lenine/paciencia/imprimir.html#columns=true 1/2
06/03/2019 Cifra Club - Lenine - Paciência

C9 A7(4) Em7(9) Em7(9)


Eu sei, a vida não para a vida é tão rara. Tão rara
G5(7M) G5(6) G5 Em7(9) F7M(9)
a vida não para não (repete intro) Mesmo quando tudo pede um pouco mais de calma
Em7 C4+(9) C9 C2(9) G5 Em7(11)
Até quando o corpo pede um pouco mais de
alma
F7M(9) C9 A7(4) Em7(9)
Será que é tempo que lhe falta pra perceber Eu sei, a vida é tão rara... a vida não
Em7(11) G5(7M) ...(repete intro 2x)
Será que temos esse tempo pra perder para não...
C9 Am7(9) G5(7M)
E quem quer saber A vida é tão rara.

A7(4) Am7(9) C2(9) C4+(9) C9 Em7

1 1 1
2 1 2 1 2 2 3 2
3
1 2

Em7(11) Em7(9) F7M(9) G5 G5(6) G5(7M)


1
1 2 1
2 1 1 2 2 3 1 2
2 3
3

https://www.cifraclub.com.br/lenine/paciencia/imprimir.html#columns=true 2/2

Você também pode gostar