Você está na página 1de 1

Vento No LitoralLegião UrbanaTom: F (intro) Am Em (2x) F C 2x)

(parte 1)

e|---------------------------------------------------|
B|---5---3---1-----12----10---8----------------------|
G|---------------------------------------------------|
D|-5---4---2----12----10----9------------------------| (2x)
A|---------------------------------------------------|
E|---------------------------------------------------|

(parte 2)

e|---------------------------------------------------|
B|---6---5---3----5---3---1--------------------------|
G|---------------------------------------------------| (2x)
D|-7---5---3----5---3---2----------------------------|
A|---------------------------------------------------|
E|---------------------------------------------------|

Existe algo que diz:


Am Em G/B Am G
De tarde quero descansar, chegar até a F
praia e ver A vida continua e se entregar é uma
Am bobagem
se o vento ainda está forte e vai Em A7 Dm
Em Já que você não está aqui,
ser bom subir nas pedras sei Dm/C Bb9 G
C O que posso fazer é cuidar de mim
Que faço isso pra esquecer C F
Bb9 Quero ser feliz ao menos
Eu deixo a onda me acertar Bb9 G
Am F G Lembra que o plano era ficarmos bem?
Am F G C
e o vento vai levando tudo embora Am Em Am G Am
F Em G/B
Agora está tão longe ver - Ei, olha só o que eu achei:
Dm C F E4 E
A linha do horizonte me distrai: Cavalos-marinhos
G Am G/B F
Dos nossos planos é que tenho mais ( Am Em ) (2x)
saudade,
Em C
Dm Sei que faço isso pra esquecer
Quando olhávamos juntos na mesma Bb9
direção Eu deixo a onda me acertar...
Bb9 Am
Aonde está você agora além de aqui,
dentro de mim?

( F G Am F G Am Em Am
Em )
( C Bb9 Am F G )

Cm
Agimos certo sem querer
G/B
Foi só o tempo que errou
Gm/Bb
Vai ser difícil sem você
A7(4) A7 Dm
Porque você está comigo o tempo todo
Quando vejo o mar
C

Você também pode gostar