Você está na página 1de 7

Se For Amor (part.

Vítor Fernandes)
João Gomes
Composição de: Hiago Nobre / Jeovane Guedes / Kinho Chefão / Renno Poeta

Tom: Bm

[Intro] Em Bm D A

[Tab - Solo]

Parte 01 De 03

E|------------------------------------------------|
B|-6/8----6/8----6/8-----8-8-8-10-----------------|
G|-----9------9------9----------------------------|
D|------------------------------------------------|
A|------------------------------------------------|
E|------------------------------------------------|

Parte 02 De 03

E|------------------------------------------------|
B|-5/7----5/7----5/7-----7-7-7-10-----------------|
G|-----7------7------7----------------------------|
D|------------------------------------------------|
A|------------------------------------------------|
E|------------------------------------------------|

Parte 03 De 03

E|------------------------------------------------|
B|-5/7----5/7----5/7-----10-8-7-------------------|
G|-----7------7------7----------7-9--7h9p7-6------|
D|------------------------------------------------|
A|------------------------------------------------|
E|------------------------------------------------|

[Primeira Parte]

Em
Alguém me fez desacreditar
Bm
Que existe amor
D
No meu coração pisou, pisou
A
E é por isso que eu tô assim

Em
Sem enxergar o sentimento
Bm
Que cê tá sentindo
D
Pra você é amor, pra mim é risco
A
Eu não tô pronto pra me arriscar

[Pré-Refrão]

Em Bm
Oh, mesmo que prometa me amar
D
Mesma que prometa me cuidar
A
A minha mente acha que só quer me usar
Em Bm
Eu não tô duvidando de você
D
Mas se for amor vai entender

E se for pra dá certo


A
O tempo vai dizer

[Refrão]

Em Bm
Oh, se aí existe amor, se for amor
D A
Você vai esperar o meu coração curar
Em Bm
Oh, se aí existe amor, se for amor
D A
Você vai esperar o meu coração curar
Pra te amar

( Em Bm D A )

[Tab - Solo]

Parte 01 De 03

E|------------------------------------------------|
B|-6/8----6/8----6/8-----8-8-8-10-----------------|
G|-----9------9------9----------------------------|
D|------------------------------------------------|
A|------------------------------------------------|
E|------------------------------------------------|

Parte 02 De 03

E|------------------------------------------------|
B|-5/7----5/7----5/7-----7-7-7-10-----------------|
G|-----7------7------7----------------------------|
D|------------------------------------------------|
A|------------------------------------------------|
E|------------------------------------------------|

Parte 03 De 03

E|------------------------------------------------|
B|-5/7----5/7----5/7-----10-8-7-------------------|
G|-----7------7------7----------7-9--7h9p7-6------|
D|------------------------------------------------|
A|------------------------------------------------|
E|------------------------------------------------|

[Primeira Parte]

Em
Alguém me fez desacreditar
Bm
Que existe amor
D
No meu coração pisou, pisou
A
E é por isso que eu tô assim

Em
Sem enxergar o sentimento

Bm
Que cê tá sentindo
D
Pra você é amor, pra mim é risco
A
Eu não tô pronto pra me arriscar

[Pré-Refrão]

Em Bm
Oh, mesmo que prometa me amar
D
Mesma que prometa me cuidar
A
A minha mente acha que só quer me usar
Em Bm
Eu não tô duvidando de você
D
Mas se for amor vai entender

E se for pra dá certo


A
O tempo vai dizer

[Refrão]

Em Bm
Oh, se aí existe amor, se for amor
D A
Você vai esperar o meu coração curar
Em Bm
Oh, se aí existe amor, se for amor
D A
Você vai esperar o meu coração curar
Em Bm
Oh, se aí existe amor, se for amor
D A
Você vai esperar o meu coração curar
Em Bm
Oh, se aí existe amor, se for amor
D A
Você vai esperar o meu coração curar

Em Bm
Pra te amar
D A
Pra te amar

[Final] Em Bm D A Em

[Tab - Solo]

Parte 01 De 06

E|------------------------------------------------|
B|-6/8----6/8----6/8-----8-8-8-10-----------------|
G|-----9------9------9----------------------------|
D|------------------------------------------------|
A|------------------------------------------------|
E|------------------------------------------------|

Parte 02 De 06

E|------------------------------------------------|
B|-5/7----5/7----5/7-----7-7-7-10-----------------|
G|-----7------7------7----------------------------|
D|------------------------------------------------|
A|------------------------------------------------|
E|------------------------------------------------|

Parte 03 De 06

E|------------------------------------------------|
B|-5/7----5/7----5/7-----10-8-7-------------------|
G|-----7------7------7----------7-9--7h9p7-6------|
D|------------------------------------------------|
A|------------------------------------------------|
E|------------------------------------------------|

Parte 04 De 06

E|------------------------------------------------|
B|-6/8----6/8----6/8-----8-8-8-10-----------------|
G|-----9------9------9----------------------------|
D|------------------------------------------------|
A|------------------------------------------------|
E|------------------------------------------------|

Parte 05 De 06

E|------------------------------------------------|
B|-5/7----5/7----5/7-----7-7-7-10-----------------|
G|-----7------7------7----------------------------|
D|------------------------------------------------|
A|------------------------------------------------|
E|------------------------------------------------|

Parte 06 De 06

E|------------------------------------------------|
B|-5/7----5/7----5/7-----10-8-7-------------------|
G|-----7------7------7----------7-9--7h9p7-6------|
D|------------------------------------------------|
A|------------------------------------------------|
E|------------------------------------------------|

A Bm D Em

1 2 3 1 2 1 2
2 3
3 4

Você também pode gostar