Você está na página 1de 9

"the strokes Reptilia"

#----------------------------------PLEASE NOTE--------------------------------#
#This file is the author's own work and represents their interpretation
of the #
#song. You may only use this file for private study, scholarship, or
research. #
Gtr I (E A D G B E) - 'Untitled'
Bass
| E E E E E E E E
E E E E E E E E
E E E E E E E E
E E E E E E E E
|-----------------|-----------------|-----------------|-----------------|
|-9-9-9-9-9-9-9-9-|-9-9-9-9-9-9-9-9-|-9-9-9-9-9-9-9-9-|-9-9-9-9-9-9-9-9-|
|-----------------|-----------------|-----------------|-----------------|
|-----------------|-----------------|-----------------|-----------------|
| E E E E E E E E
E E E E E E E E
E E E E E E E E
E E E E E E E E
|-----------------|-----------------|-----------------|-----------------|
|-9-9-9-9-9-9-9-9-|-9-9-9-9-9-9-9-9-|-9-9-9-9-9-9-9-9-|-9-9-9-9-9-9-9-9-|
|-----------------|-----------------|-----------------|-----------------|
|-----------------|-----------------|-----------------|-----------------|
Gtr 1
E E E E Q
Q
E E E E Q
Q
E E E E Q
Q
E E E E Q
Q
|-----------------|-----------------|-----------------|-----------------|
|-----------------|-----------------|-----------------|-----------------|
|-7-7---7---------|-7-7---7---------|-------------7---|-------------7---|
|---------9---7---|---------9---7---|-6-6---6-9-------|-6-6---6-9-------|
|-----------------|-----------------|-----------------|-----------------|
|-----------------|-----------------|-----------------|-----------------|
| Gtr 2 x4
| E E E E E E E E
E E E E E E E E
E E E E E E E E
E E E E E E E E
|-----------------|-----------------|-----------------|-----------------|
|-----------------|-----------------|-----------------|-----------------|
|-7-7-7-7-7-7-7-7-|-7-7-7-7-7-7-7-7-|-9-9-9-9-9-9-9-9-|-9-9-9-9-9-9-9-9-|
|-9-9-9-9-9-9-9-9-|-9-9-9-9-9-9-9-9-|-9-9-9-9-9-9-9-9-|-9-9-9-9-9-9-9-9-|
|-9-9-9-9-9-9-9-9-|-9-9-9-9-9-9-9-9-|-7-7-7-7-7-7-7-7-|-7-7-7-7-7-7-7-7-|
|-----------------|-----------------|-----------------|-----------------|
| Bass
|-----------------|-----------------|-9-9-9-9-9-9-9-9-|-9-9-9-9-9-9-9-9-|
|-9-9-9-9-9-9-9-9-|-9-9-9-9-9-9-9-9-|-----------------|-----------------|
|-----------------|-----------------|-----------------|-----------------|
|-----------------|-----------------|-----------------|-----------------|
Gtr 1 x2
E E E E Q
Q
E E E E Q
Q
E E E E Q
Q
E E E E Q
Q
|-----------------|-----------------|-----------------|-----------------|
|-----------------|-----------------|-----------------|-----------------|
|-7-7---7---------|-7-7---7---------|-------------7---|-------------7---|
|---------9---7---|---------9---7---|-6-6---6-9-------|-6-6---6-9-------|
|-----------------|-----------------|-----------------|-----------------|
|-----------------|-----------------|-----------------|-----------------|

Gtr 2 x2
E E E E Q
Q
E E E E Q
Q
E E E E Q
Q
E E E E Q
Q
|-----------------|-----------------|-----------------|-----------------|
|-----------------|-----------------|-----------------|-----------------|
|-7-7---7---------|-7-7---7---------|-------------7---|-------------7---|
|---------9---7---|---------9---7---|-6-6---6-9-------|-6-6---6-9-------|
|-----------------|-----------------|-----------------|-----------------|
|-----------------|-----------------|-----------------|-----------------|
| Bass
|-----------------|-----------------|-9-9-9-9-9-9-9-9-|-9-9-9-9-9-9-9-9-|
|-9-9-9-9-9-9-9-9-|-9-9-9-9-9-9-9-9-|-----------------|-----------------|
|-----------------|-----------------|-----------------|-----------------|
|-----------------|-----------------|-----------------|-----------------|
Gtr 1
E E E E Q
Q
E E E E Q
Q
E E E E Q
Q
E E E E Q
Q
|-----------------|-----------------|-----------------|-----------------|
|-----------------|-----------------|-----------------|-----------------|
|-7-7---7---------|-7-7---7---------|-------------7---|-------------7---|
|---------9---7---|---------9---7---|-6-6---6-9-------|-6-6---6-9-------|
|-----------------|-----------------|-----------------|-----------------|
|-----------------|-----------------|-----------------|-----------------|
| Gtr 2 x4
| E E E E E E E E
E E E E E E E E
E E E E E E E E
E E E E E E E E
|-----------------|-----------------|-----------------|-----------------|
|-----------------|-----------------|-----------------|-----------------|
|-7-7-7-7-7-7-7-7-|-7-7-7-7-7-7-7-7-|-9-9-9-9-9-9-9-9-|-9-9-9-9-9-9-9-9-|
|-9-9-9-9-9-9-9-9-|-9-9-9-9-9-9-9-9-|-9-9-9-9-9-9-9-9-|-9-9-9-9-9-9-9-9-|
|-9-9-9-9-9-9-9-9-|-9-9-9-9-9-9-9-9-|-7-7-7-7-7-7-7-7-|-7-7-7-7-7-7-7-7-|
|-----------------|-----------------|-----------------|-----------------|
| Bass
|-----------------|-----------------|-9-9-9-9-9-9-9-9-|-9-9-9-9-9-9-9-9-|
|-9-9-9-9-9-9-9-9-|-9-9-9-9-9-9-9-9-|-----------------|-----------------|
|-----------------|-----------------|-----------------|-----------------|
|-----------------|-----------------|-----------------|-----------------|
Gtr 2
e e e e e e e e
e e e e e e e e
e e e e e e e e
e
e e e e e e e
|-----------------------|-----------------------|---------------------|----------------------|
|-15-15---15-10-10---10-|-12-12---12-14-14---14-|-12-12--12-14-14--14-|10-10---10-15-15------|
|-x--x----x--x--x----x--|-x--x----x--x--x----x--|-x--x---x--x--x---x--|x--x----x--x--x-------|
|-x--x----x--x--x----x--|-x--x----x--x--x----x--|-x--x---x--x--x---x--|x--x----x--x--x-------|
|-14-14---14-9--9----9--|-10-10---10-12-12---12-|-10-10--10-12-12--12-|9--9----9--14-14------|
|-----------------------|-----------------------|---------------------|----------------------|

Gtr 2
e e e e e e e e
e e e e e e e e
e e e e e e e e
e
e e e e e e e
|-----------------------|-----------------------|---------------------|----------------------|
|-15-15---15-10-10---10-|-12-12---12-14-14---14-|-12-12--12-14-14--14-|10-10---10-15-15------|
|-x--x----x--x--x----x--|-x--x----x--x--x----x--|-x--x---x--x--x---x--|x--x----x--x--x-------|
|-x--x----x--x--x----x--|-x--x----x--x--x----x--|-x--x---x--x--x---x--|x--x----x--x--x-------|
|-14-14---14-9--9----9--|-10-10---10-12-12---12-|-10-10--10-12-12--12-|9--9----9--14-14------|
|-----------------------|-----------------------|---------------------|----------------------|
|Bass
|-----------------------|-----------------------|---------------------|7--7--6-6--4--4-------|
|-----------------------|-5--5----5--7--7----7--|-5--5---5--7--7---7--|-----------------4--4-|
|-2--2----2--4--4--5--5-|-----------------------|---------------------|----------------------|
|-----------------------|-----------------------|---------------------|----------------------|
Gtr 2
e e e e e e e e
e e e e e e e e
e e e e e e e e
e
e e e e e e e
|-----------------------|-----------------------|---------------------|----------------------|
|-15-15---15-10-10---10-|-12-12---12-14-14---14-|-12-12--12-14-14--14-|10-10---10-15-15------|
|-x--x----x--x--x----x--|-x--x----x--x--x----x--|-x--x---x--x--x---x--|x--x----x--x--x-------|
|-x--x----x--x--x----x--|-x--x----x--x--x----x--|-x--x---x--x--x---x--|x--x----x--x--x-------|
|-14-14---14-9--9----9--|-10-10---10-12-12---12-|-10-10--10-12-12--12-|9--9----9--14-14------|
|-----------------------|-----------------------|---------------------|----------------------|
|Gtr 1
|-7-------10-9-------9--|-7-----7-10-9-----12-9-|-7----7-10-9----12-9-|9-------9--10-7-----9-|
|----7--10------7--10---|----8----------10------|----8---------10-----|---7--8----------7----| x4
|-----------------------|-----------------------|---------------------|----------------------|
|-----------------------|-----------------------|---------------------|----------------------|
|-----------------------|-----------------------|---------------------|----------------------|
|-----------------------|-----------------------|---------------------|----------------------|

|Bass
|-----------------------|-----------------------|---------------------|7--7--6-6--4--4-------|
|-----------------------|-5--5----5--7--7----7--|-5--5---5--7--7---7--|-----------------4--4-|
|-2--2----2--4--4--5--5-|-----------------------|---------------------|----------------------|
|-----------------------|-----------------------|---------------------|----------------------|
Solo 1:51
Gtr 2
|--3-| |--3--|
|--3-| |--3--|
|--3-| |--3--|
|--3-| |--3--|
Q Q Q Q Q Q
Q Q Q Q Q Q
Q Q Q Q Q Q
Q Q Q Q Q Q
|-----------------|-----------------|-----------------|-----------------|
|-9--7----7-------|---------------7-|-9--7----7-------|-----------------|
|------9-----9--7-|-9--7-6--7--6----|------9-----9--7-|-9--7-6--7--6--4-|
|-----------------|-----------------|-----------------|-----------------|
|-----------------|-----------------|-----------------|-----------------|
|-----------------|-----------------|-----------------|-----------------|
| Gtr 1
| E E E E E E E E
E E E E E E E E
E E E E E E E E
E E E E E E E E
|-----------------|-----------------|-----------------|-----------------|
|-----------------|-----------------|-----------------|-----------------|
|-7-7-7-7-7-7-7-7-|-9-9-9-9-9-9-9-9-|-7-7-7-7-7-7-7-7-|-9-9-9-9-9-9-9-9-|
|-9-9-9-9-9-9-9-9-|-9-9-9-9-9-9-9-9-|-9-9-9-9-9-9-9-9-|-9-9-9-9-9-9-9-9-|
|-9-9-9-9-9-9-9-9-|-7-7-7-7-7-7-7-7-|-9-9-9-9-9-9-9-9-|-7-7-7-7-7-7-7-7-|
|-----------------|-----------------|-----------------|-----------------|
|
| E E E E E E E E
E E E E E E E E
E E E E E E E E
E E E E E E E E
|-----------------|-----------------|-----------------|-----------------|
|-----------------|-----------------|-----------------|-----------------|
|-----------------|-----------------|-----------------|-----------------|
|-7-7-7-7-7-7-7-7-|-0-0-0-0-0-0-0-0-|-7-7-7-7-7-7-7-7-|-0-0-0-0-0-0-0-0-|
Gtr 2
(Cant work out timings)
|----7-----------10b-7-------=---7-7/12b-10--------------10--|12b-------------|
|-10b~~7h9p7--7---|---10p7h9p7----7-|------13h11h12p10----10-|--13p10h12------|
|-----------10--7-|------------10---|------------------13----|---------13b----|
|-----------------|-----------------|------------------------|----------------|
|-----------------|-----------------|------------------------|----------------|
|-----------------|-----------------|------------------------|----------------|

| Gtr 1
| E E E E E E E E
E E E E E E E E
E E E E E E E E
E E E E E
E E E
|-----------------|-----------------|------------------------|----------------|
|-----------------|-----------------|------------------------|----------------|
|-7-7-7-7-7-7-7-7-|-9-9-9-9-9-9-9-9-|-7--7--7--7--7--7--7--7-|-9-9-9-9-99-9-9-|
|-9-9-9-9-9-9-9-9-|-9-9-9-9-9-9-9-9-|-9--9--9--9--9--9--9--9-|-9-9-9-9-99-9-9-|
|-9-9-9-9-9-9-9-9-|-7-7-7-7-7-7-7-7-|-9--9--9--9--9--9--9--9-|-7-7-7-7-77-7-7-|
|-----------------|-----------------|------------------------|----------------|
| Bass
| E E E E E E E E
E E E E E E E E
E E E E E E E E
E E E E E
E E E
|-----------------|-----------------|------------------------|----------------|
|-----------------|-----------------|------------------------|----------------|
|-----------------|-----------------|------------------------|----------------|
|-7-7-7-7-7-7-7-7-|-0-0-0-0-0-0-0-0-|-7--7--7--7--7--7--7--7-|-0-0-0-0-00-0-0-|
Gtr 2
|--3-| |--3--|
|--3-| |--3--|
|--3-| |--3--|
Q Q Q Q Q Q
Q Q Q Q Q Q
Q Q Q Q Q Q
W
|-----------------|-----------------|-----------------|-----------------|
|-9--7----7-------|---------------7-|-9--7----7-------|-----------------|
|------9-----9--7-|-9--7-6--7--6----|------9-----9--7-|-4---------------|
|-----------------|-----------------|-----------------|-----------------|
|-----------------|-----------------|-----------------|-----------------|
|-----------------|-----------------|-----------------|-----------------|
| Gtr 1
| E E E E E E E E
E E E E E E E
E E E E E E E E
E E E E E E E E
|-----------------|-----------------|-----------------|-----------------|
|-----------------|-----------------|-----------------|-----------------|
|-7-7-7-7-7-7-7-7-|-9-9-9-9-9-9-9-9-|-7-7-7-7-7-7-7-7-|-9-9-9-9-9-9-9-9-|
|-9-9-9-9-9-9-9-9-|-9-9-9-9-9-9-9-9-|-9-9-9-9-9-9-9-9-|-9-9-9-9-9-9-9-9-|
|-9-9-9-9-9-9-9-9-|-7-7-7-7-7-7-7-7-|-9-9-9-9-9-9-9-9-|-7-7-7-7-7-7-7-7-|
|-----------------|-----------------|-----------------|-----------------|
|
| E E E E E E E E
E E E E E E E
E E E E E E E E
E E E E E E E E
|-----------------|-----------------|-----------------|-----------------|
|-----------------|-----------------|-----------------|-----------------|
|-----------------|-----------------|-----------------|-----------------|
|-7-7-7-7-7-7-7-7-|-0-0-0-0-0-0-0-0-|-7-7-7-7-7-7-7-7-|-0-0-0-0-0-0-0-0-|

Gtr 2
|-----------------|-----------------|-----------------|-----------------|
|-----------------|-----------------|-----------------|-----------------|
|-x-x-7-x-x-x-7-x-|-x-x-7-x-x-x-7-x-|-x-x-9-x-x-x-9-x-|-x-x-9-x-x-x-9-x-|
|-x-x-9-x-x-x-9-x-|-x-x-9-x-x-x-9-x-|-x-x-9-x-x-x-9-x-|-x-x-9-x-x-x-9-x-|
|-x-x-9-x-x-x-9-x-|-x-x-9-x-x-x-9-x-|-x-x-7-x-x-x-7-x-|-x-x-7-x-x-x-7-x-|
x2
|-----------------|-----------------|-----------------|-----------------|
|
| E E E E E E E E
E E E E E E E E
E E E E E E E E
E E E E E E E E
|-----------------|-----------------|-----------------|-----------------|
|-----------------|-----------------|-----------------|-----------------|
|-----------------|-----------------|-----------------|-----------------|
|-7-7-7-7-7-7-7-7-|-7-7-7-7-7-7-7-7-|-0-0-0-0-0-0-0-0-|-0-0-0-0-0-0-0-0-|
Gtr 1
E E E E Q
Q
E E E E Q
Q
E E E E Q
Q
E E E E Q
Q
|-----------------|-----------------|-----------------|-----------------|
|-----------------|-----------------|-----------------|-----------------|
|-7-7---7---------|-7-7---7---------|-------------7---|-------------7---|
|---------9---7---|---------9---7---|-6-6---6-9-------|-6-6---6-9-------|
|-----------------|-----------------|-----------------|-----------------|
|-----------------|-----------------|-----------------|-----------------|
| Gtr 2 x4
| E E E E E E E E
E E E E E E E E
E E E E E E E E
E E E E E E E E
|-----------------|-----------------|-----------------|-----------------|
|-----------------|-----------------|-----------------|-----------------|
|-7-7-7-7-7-7-7-7-|-7-7-7-7-7-7-7-7-|-9-9-9-9-9-9-9-9-|-9-9-9-9-9-9-9-9-|
|-9-9-9-9-9-9-9-9-|-9-9-9-9-9-9-9-9-|-9-9-9-9-9-9-9-9-|-9-9-9-9-9-9-9-9-|
|-9-9-9-9-9-9-9-9-|-9-9-9-9-9-9-9-9-|-7-7-7-7-7-7-7-7-|-7-7-7-7-7-7-7-7-|
|-----------------|-----------------|-----------------|-----------------|
| Bass
|-----------------|-----------------|-9-9-9-9-9-9-9-9-|-9-9-9-9-9-9-9-9-|
|-9-9-9-9-9-9-9-9-|-9-9-9-9-9-9-9-9-|-----------------|-----------------|
|-----------------|-----------------|-----------------|-----------------|
|-----------------|-----------------|-----------------|-----------------|
Gtr 2
e e e e e e e e
e e e e e e e e
e e e e e e e e
e
e e e e e e e
|-----------------------|-----------------------|---------------------|----------------------|
|-15-15---15-10-10---10-|-12-12---12-14-14---14-|-12-12--12-14-14--14-|10-10---10-15-15------|
|-x--x----x--x--x----x--|-x--x----x--x--x----x--|-x--x---x--x--x---x--|x--x----x--x--x-------|
|-x--x----x--x--x----x--|-x--x----x--x--x----x--|-x--x---x--x--x---x--|x--x----x--x--x-------|
|-14-14---14-9--9----9--|-10-10---10-12-12---12-|-10-10--10-12-12--12-|9--9----9--14-14------|
|-----------------------|-----------------------|---------------------|----------------------|

Gtr 2
e e e e e e e e
e e e e e e e e
e e e e e e e e
e
e e e e e e e
|-----------------------|-----------------------|---------------------|----------------------|
|-15-15---15-10-10---10-|-12-12---12-14-14---14-|-12-12--12-14-14--14-|10-10---10-15-15------|
|-x--x----x--x--x----x--|-x--x----x--x--x----x--|-x--x---x--x--x---x--|x--x----x--x--x-------|
|-x--x----x--x--x----x--|-x--x----x--x--x----x--|-x--x---x--x--x---x--|x--x----x--x--x-------|
|-14-14---14-9--9----9--|-10-10---10-12-12---12-|-10-10--10-12-12--12-|9--9----9--14-14------|
|-----------------------|-----------------------|---------------------|----------------------|
|Bass
|-----------------------|-----------------------|---------------------|7--7--6-6--4--4-------|
|-----------------------|-5--5----5--7--7----7--|-5--5---5--7--7---7--|-----------------4--4-|
|-2--2----2--4--4--5--5-|-----------------------|---------------------|----------------------|
|-----------------------|-----------------------|---------------------|----------------------|
Gtr 2
e e e e e e e e
e e e e e e e e
e e e e e e e e
e
e e e e e e e
|-----------------------|-----------------------|---------------------|----------------------|
|-15-15---15-10-10---10-|-12-12---12-14-14---14-|-12-12--12-14-14--14-|10-10---10-15-15------|
|-x--x----x--x--x----x--|-x--x----x--x--x----x--|-x--x---x--x--x---x--|x--x----x--x--x-------|
|-x--x----x--x--x----x--|-x--x----x--x--x----x--|-x--x---x--x--x---x--|x--x----x--x--x-------|
|-14-14---14-9--9----9--|-10-10---10-12-12---12-|-10-10--10-12-12--12-|9--9----9--14-14------|
|-----------------------|-----------------------|---------------------|----------------------|
|Gtr 1
|-7-------10-9-------9--|-7-----7-10-9-----12-9-|-7----7-10-9----12-9-|9-------9--10-7-----9-|
|----7--10------7--10---|----8----------10------|----8---------10-----|---7--8----------7----| x4
|-----------------------|-----------------------|---------------------|----------------------|
|-----------------------|-----------------------|---------------------|----------------------|
|-----------------------|-----------------------|---------------------|----------------------|
|-----------------------|-----------------------|---------------------|----------------------|

|Bass
|-----------------------|-----------------------|---------------------|7--7--6-6--4--4-------|
|-----------------------|-5--5----5--7--7----7--|-5--5---5--7--7---7--|-----------------4--4-|
|-2--2----2--4--4--5--5-|-----------------------|---------------------|----------------------|
|-----------------------|-----------------------|---------------------|----------------------|
Bass
|-----------------|-----------------|-----------------|-----------------|
|-----------------|-----------------|-----------------|-----------------|
|-----------------|-----------------|-----------------|-----------------|
|-7-7-7-7-7-7-7-7-|-7-7-7-7-7-7-7-7-|-7-7-7-7-7-7-7-7-|-7-7-7-7-7-7-7-7-|
Both
|-7--|
|-7--|
|-7--|
|-9--|
|-9--|
|-7--|
|Bass
|----|
|----|
|----|
|-7--|
Duration Legend
--------------W - whole; H - half; Q - quarter; E - 8th; S - 16th; T - 32nd; X - 64th;
a - acciaccatura
+ - note tied to previous; . - note dotted; .. - note double dotted
Uncapitalized letters represent notes that are staccato (1/2 duration)
Irregular groupings are notated above the duration line
Duration letters will always appear directly above the note/fret number
it represents the
duration for. Duration letters with no fret number below them represent
rests. Multibar rests are notated in the form Wxn, where n is the number of bars to
rest for. Low
melody durations appear below the staff
Tablature Legend
---------------h
- hammer-on
p
- pull-off
b
- bend
pb - pre-bend
r
- bend release (if no number after the r, then release immediately)
/\ - slide into or out of (from/to "nowhere")
s
- legato slide
S
- shift slide
- natural harmonic

[n]
n(n)
~
tr
T
TP
PM
\n/
\n
n/
/n\
=
<>
x
o

artificial harmonic
tapped harmonic
vibrato
trill
tap
trem. picking
palm muting
tremolo bar dip; n = amount to dip
tremolo bar down
tremolo bar up
tremolo bar inverted dip
hold bend; also acts as connecting device for hammers/pulls
volume swell (louder/softer)
on rhythm slash represents muted slash
on rhythm slash represents single note slash

Misc Legend
----------| - bar
|| - double bar
||o - repeat start
o|| - repeat end
*| - double bar (ending)
: - bar (freetime)
$ - Segno
& - Coda
Tempo markers - = BPM(8/16=s8/s16), where s8 = swing 8ths, s16 = swing
16ths