Você está na página 1de 5

Orianthi

According To You
Believe
2009
Submitted by: paramore_fans@yahoo.com
Key: F
Tuning: Drop D
Chords used: Drop D only
F - 333xxx
C - x355xx
Dm - 000xxx
Bb - 888xxx
Gm - 555xxx
Am - 777xxx
Chords used: for Standard eADGBe
F - 133211
C - x32010
Dm - xx0231
Bb - x13331
Gm - 355333
Am - x02210
Intro: F--C-Verse 1:
F
C
According to you I'm stupid, I'm
Dm
Bb
useless I can't do anything right
F
C
According to you I'm difficult hard
Dm
Bb
to please, forever changing my mind
F
C
I'm a mess in a dress can't show up
Dm
Bb
on time even if it would save my life
F C
Gm
According to you According to you
Mini Solo: Orianthi Shreds like this very fast!!!
e|----------------------------------------12-13-15-17--17-|
B|----------------------------------13-15-----------------|
G|-------------------------12-14-15-----------------------|
D|----------------12-14-15--------------------------------|
A|-------12-13-15-----------------------------------------|
D|-15-17--------------------------------------------------|
Chorus 1:
Bb
C
But according to him I'm beautiful
Dm

Gm

incredible he can't get me out of his head


Bb
C
According to him I'm funny irresistible
Dm
Gm
everything he ever wanted
Bb
C
Everything is opposite I don't feel like
Dm
Gm
stopping it Baby tell me what I got to lose
Bb
He's into me for everything
C
Bb
I'm not, according to you
Mini Solo: After Chorus
e|-------------------------------------13-------17--17-|
B|----------------------------------15----15-13--------|
G|-------------------14--14------14--------------------|
D|-------12-15-12-------------15-----------------------|
A|----12----------15-----------------------------------|
D|-15--------------------------------------------------|
Verse 2:
F
C
According to you I'm boring
Dm
Bb
I'm moody and you can't take me any place
F
C
According to you I suck at telling
Dm
Bb
jokes cause I always give it away
F
C
Dm
I'm the girl with the worst attention span
Bb
you're the boy who puts up with it
F C
Gm
According to you According to you
Mini Solo: Orianthi taps very fast!!!
e|-10h13p10h13p10h13p10h13p10h13p10h13p10h13p10h13h17--17-|
B|--------------------------------------------------------|
G|--------------------------------------------------------|
D|--------------------------------------------------------|
A|--------------------------------------------------------|
D|--------------------------------------------------------|
Chorus 2:
Bb
C
But according to him I'm beautiful
Dm
Gm
incredible he can't get me out of his head
Bb
C
According to him I'm funny irresistible
Dm
Gm
everything he ever wanted
Bb
C

Everything is opposite I don't feel like


Dm
Gm
stopping it Baby tell me what I got to lose
Bb
He's into me for everything
C
I'm not according to you
Bridge:
Dm
Bb
I need to feel appreciated
F
Am
like I'm not hated oh no
Dm
Bb
Why can't you see me through his eyes?
It's too bad you're making me dizzy
Guitar solo: Bb--C--Dm--Gm-- x2
Orianthi: Main Solo
fast riff
e|-17-----------------|--------------------------------------------------------8
-|
B|-----17-18-17-18-15-|-15---------------------------------------------------6--|
G|--------------------|-----10p7----10p7---10p7---10p7---7p5---7p5--------------|
D|--------------------|----------10------8------7------5-----3-----3-5----------|
A|--------------------|------------------------------------------------5--------|
D|--------------------|--------------------------------------------------0h5----|
fast tapping
e|-10p5h10p5h10p5h10p5h10p5h10p5h10p5h10p5-|
B|-----------------------------------------|
G|-----------------------------------------|
D|-----------------------------------------|
A|-----------------------------------------|
D|-----------------------------------------|
e|-12p7h12p7h12p7h12p7h12p7h12p7h12p7h12p7-|
B|-----------------------------------------|
G|-----------------------------------------|
D|-----------------------------------------|
A|-----------------------------------------|
D|-----------------------------------------|
e|-13p10h13p10h13p10h13p10h13p10h13p10h13p10h13p10-|
B|-------------------------------------------------|
G|-------------------------------------------------|
D|-------------------------------------------------|
A|-------------------------------------------------|
D|-------------------------------------------------|
e|-17p13h18p13h17p13h15p13-17p13h18p13h17p13h15p13-----------|

B|-----------------------------------------------------------|
G|-----------------------------------------------------------|
D|-----------------------------------------------------------|
A|-----------------------------------------------------------|
D|-----------------------------------------------------------|
Verse 3:
F
C
According to me you're stupid
you're useless
Gm
you can't do anything right
Chorus 3:
Bb
C
But according to him I'm beautiful
Dm
Gm
incredible he can't get me out of his head
Mini Solo: at "out of his head"
e|-17-----17----17-------------------------|
B|-----16----16----13h16p13----------------|
G|--------------------------12h14h15-------|
D|-----------------------------------10h12-|
A|-----------------------------------------|
D|-----------------------------------------|
Bb
C
According to him I'm funny irresistible
Dm
Gm
everything he ever wanted
Mini Solo: at "everything he ever wanted"
e|-22--22p17h18p17----------18--18-|
B|-----------------16p13h16--------|
G|---------------------------------|
D|---------------------------------|
A|---------------------------------|
D|---------------------------------|
Bb
C
Everything is opposite I don't feel like
Dm
Gm
stopping it Baby tell me what I got to lose
Bb
He's into me for everything
C
Bb
I'm not according to you you you
according to you you you
Outro:
F
C
According to you I'm stupid
you're useless

Bb
I can't do anything right