Você está na página 1de 3

3/9/2016

Gilberto Gil - A Paz | Cifra Club

APaz
GilbertoGil
Tom: B
Intro 4x:

Bm7

E7

E|------------------------0-------|
B|-------0-----0--------0---------|
G|-----7-----7--------7-----------|
D|---7-----7--------6-------------|
A|--------------------------------|
E|-7--------------0---------------|
Dedilhado Padro:

A7M

F#m7

Bm7

E7

E|---------------------------------------------------------------|
B|--------0------0--------0------0---------0----0-------0-----0--|
G|------6------6--------2------2---------7-----7-------7-----7---|
D|----6------6--------2------2---------7-----7-------6-----6-----|
A|---------------------------------------------------------------|
E|--5---------------2----------------7-------------0-------------|

C7M

Am7

Bm7

E7

E|----------------------------------------------------------------------|
B|---------0------0---------0------0---------0------0---------0------0--|
G|-------9------9---------5------5---------7------7---------7------7----|
D|-----9------9---------5------5---------7------7---------6------6------|
A|----------------------------------------------------------------------|
E|--8-----------------5----------------7----------------0---------------|
Pr-refro:

Gm6
E|-------------------|
B|--------0------0---|
G|------3------3-----|
D|----2------2-------|
A|-------------------|
E|--3----------------|

http://www.cifraclub.com.br/gilberto-gil/a-paz/imprimir.html

1/3

3/9/2016

Gilberto Gil - A Paz | Cifra Club

A7M
A paz

F#m7
invadiu

Me encheu de paz

o meu corao

A7M

Bm7

F#m7
como se

E7
de repente

Bm7
o vento de um tufo

E7
C7M
Am7
Arrancasse os meus ps do cho
onde eu j
A7M
A paz

F#m7
fez um mar

E7
Invadir

da revoluo

meu destino a paz

A7M

no me enterro mais

Bm7

E7

Bm7

F#m7
como aquela

E7
C7M
Am7
De uma bomba sobre o Japo
fez nascer

grande exploso
Bm7
o Japo na paz

Bm7

Gm6

Dedilhado refro:

C7M

F#m7

F#m6

E|---------0--------0--------0--------0----------------------------------|
B|-------0--------0--------0--------0----------0-----0----------0-----0--|
G|-----0--------0--------0--------0----------2-----2----------2-----2----|
D|-----------------------------------------2-----2----------1-----1------|
A|---3--------2--------0-------------------------------------------------|
E|------------------------------3--------2----------------2--------------|

C7M
Eu pensei em mim
C7M
Que contradio

A7M
Eu vim

eu pensei em
s

a guerra faz

F#m7
vim parar

Chegou ao fim

A7M

F#m7
onde o fim

E7

Bm7

E7

Bm7

Bm7
por ns

E7

Bm7
am---or em paz

E7

eu cho---rei
nosso

na beira do cais

E7
C7M
Onde o mar arrebenta em mim
( Bm7

ti

Bm7

E7
onde a estrada

Bm7
da tarde lils

Am7
Bm7
o lamento de tantos ''ais''

E7

E7 )

http://www.cifraclub.com.br/gilberto-gil/a-paz/imprimir.html

2/3

3/9/2016

Gilberto Gil - A Paz | Cifra Club

A paz...

A7M

Am7

F#m7

Gm6

http://www.cifraclub.com.br/gilberto-gil/a-paz/imprimir.html

Bm7

C7M

E7

F#m6

3/3