Você está na página 1de 2

Fernandinho - Emanuel

E|--------------------------------------------------|
B|--------------------------------------------------|
G|--------------------------------------------------|
D|----6-7-6---6-7-----------------------------------|
A|7--------7---------------------------------------|
E|--------------------------------------------------|

E|--------------------------------------------------|
B|--------------------------999----9--101010----10--|
G|999----9--111111-----11------999--9--------999---9|
D|---999--9--------999---9--------------------------|
A|--------------------------------------------------|
E|--------------------------------------------------|

E|--------------------------------------------------|
B|9-9-9-9-10-9--------------------------------------|
G|-9-9-9--------------------------------------------|(3x)
D|--------------------------------------------------|
A|--------------------------------------------------|
E|--------------------------------------------------|

E|--------------------------------------------------|
B|9-9-9-9-10-9--------------------------------------|
G|-9-9-9------9~------------------------------------|
D|--------------------------------------------------|
A|--------------------------------------------------|
E|--------------------------------------------------|

Base Intro: E B C#m A

E B C#m A
Deixou a Sua glória para estar comigo
E B C#m A
Morreu numa cruz para estar comigo
E B G#m A
Venceu o diabo para estar comigo
E B ( E B D A )
O véu se rasgou para estar comigo

E B
Maravilhoso, Conselheiro, Deus forte
G#m A
Príncipe da paz
E B
Maravilhoso, Conselheiro, Deus forte
G#m A
Príncipe da paz
E B
Maravilhoso, Conselheiro, Deus forte
G#m A
Príncipe da paz
E B
Maravilhoso, Conselheiro, Deus forte
G#m A
Príncipe da paz

E B G#m A
Emanuel, Emanuel, Emanuel

Base Solo: E B C#m A

Solo:

E|-------------------------|
B|-5--5--4--4--0--0--2--2--|
G|-4--4--4--4--1--1--2--2--|
D|-------------------------|
A|-------------------------|
E|-------------------------|

----------------- Acordes -----------------


A = X 0 2 2 2 0
B = X 2 4 4 4 2
C#m = X 4 6 6 5 4
D = X X 0 2 3 2
E = 0 2 2 1 0 0
G#m = 4 6 6 4 4 4